Furtive Monologue Intro Tab - DESPISED ICON






Despised Icon
Furtive Monologue
The Ills Of Modern Man

Tabbed by: keganjgrode (Kegan)
Email: keganjgrode@yahoo.com

Tuning: standard B

e|--------8-| |----------------8-----9-----8-------------8-|
B|--------x-| |----------------x-----x-----x-------------x-|
G|--------6-| |----------------6-----7-----6-------------6-|
D|----------| |--------------------------------------------|x5
A|6-5-6-5---| |6-5-6-5-6-666-5---6-5---6-5---6-5-6-666-5---|
E|6-5-6-5---| |6-5-6-5-6-666-5---6-5---6-5---6-5-6-666-5---|


e|----------------8-----9-----8-8-8-9-9-9-|
B|----------------x-----x-----x-x-x-x-x-x-|
G|----------------6-----7-----6-6-6-7-7-7-|
D|----------------------------------------|
A|6-5-6-5-6-666-5---6-5---6-5-------------|
E|6-5-6-5-6-666-5---6-5---6-5-------------|


8------8-----8-----9----------------|
x------x-----x-----x----------------|
6------6-----6-----7----------------|
------------------------------------|
---6-5---6-5---6-5---6-5-6-5-6-666-5|
---6-5---6-5---6-5---6-5-6-5-6-666-5|
                                      x2
8------8-----9----------------------|/
x------x-----x----------------------|
6------6-----7----------------------|
------------------------------------|
---6-5---6-5---6-5---6-5-6-5-6-666-5|
---6-5---6-5---6-5---6-5-6-5-6-666-5|


e|----------------------|
B|----------------------|
G|----------------------|
D|----------------------|
A|8-7---8-----8-7-5-7-4-|
E|6-5-0-5---0-6-5-3-5-2-|

I doubt this is right cause i didnt play it and i just watched the guitarist play it on 
and then listened to it, too. plz rate and comment!

ĂŽnscrie-te la newsletter


Join the ranks ! LIKE us on Facebook