Total Desaster Tab - Destruction






Total Desaster 
Tabbed by Evil 1998 
Corrected by death8699@prodigy.net 

Noise and Blasphemics by DESTRUCTION 

Total Desaster is from the Sentence of Death MLP 


RIFF A 
G--9----5----9----7/10/9-----9----5----9----7/10--- 
D--9----5----9----7/10/9-----9----5----9----7/10--- 
A--7----3----7----5/-8/7-----7----3----7----5/-8--- 
E----0"---0"---0"--------------0"---0"---0"-------- 

RIFF B 
G-----------5/7--9--9-- 3 times then-----------5/7-------------- 
D--9--7--5--5/7--9--9----9--7--5--5/7-------------- 
A--9--7--5--3/5--7--7----9--7--5--3/5--2-3-2-0----- 
E--7--5--3--------0"--- --7--5--3---------------3-2- 

REFRAIN 

G--9-9-9--10-10--9-9-9---12--11-10-11----9-9-9--10-10---7-7-7---9-9--- 
D--9-9-9--10-10--9-9-9---12--11-10-11----9-9-9--10-10---7-7-7---9-9--- 
A--7-7-7---8--8--7-7-7---10---9--8--9----7-7-7---8--8---5-5-5---7-7--- 
E--------------------------------------------------------------------- 

MIDDLEPART 

G--------------------------------- 
D---------10-10----------4--5--9--              
A---------10-10----------4--5--9--               
E--7-7-7---8--8--7-7-7---2--3--7-- 

2 times then 

G-------11/12--------11/12------------------------------- 
D-------11/12--------11/12--------10-10----------4--5--9- 
A--------9/10---------9/10--------10-10----------4--5--9- 
E-8-8-8--------8-8-8--------7-7-7--8--8---7-7-7--2--3--7- 
 
4 - A 
Riff C 4 - B 
G--9-9-9---5-5-5---7-7-7---9-9-9------------2 - A 
D--9-9-9---5-5-5---7-7-7---9-9-9---5--7--9--4 - Refr. 
A--7-7-7---3-3-3---5-5-5---7-7-7---5--7--9--2 - A 
E----------------------------------3--5--7--2 - Refr. 
2 - Middlepart 
2 - C 
2 - Middlepart 
8 - C (Solo) 
4 - A 
4 - Refr. 
3 - A

ĂŽnscrie-te la newsletter


Like us on Facebook