A Song For Toki Chords - Dethklok






This song is featured in the episode "Dethkids"


   C           Fm                C               G

e|-------------------------------12------12------10-----10-------------|
B|--8-----9-----9------9---------13------13------12-----12-------------|
G|--9-----8-----10-----10------------12-----12------12------12---------|
D|----10----10-----10-----10-------------------------------------------|
A|---------------------------------------------------------------------|
E|---------------------------------------------------------------------|


C                    Fm                

I'm just a girl just a spec of worthless dust in this

C             G   
rotten world. Yet I must speak to thee

C                             Fm
There was once a time when I longed for pretty things

                C                  G 
but now thats changed, I long for murder.


  F5      G4       A5      G*

e|-------------------------------------------|
B|-------------------------------------------|
G|-------------------------------------------|
D|--3-------5-------7------------------------|
A|--3-------3-------7-------5----------------|
E|--1(x4)---3(x4)---5(x4)---7(x4)------------|


F5                    G4     A5                       G* 
How long shall I wait,  to celebrate my unforgiving hate.


F5       C4       A5     G*
 ate wuu wuu wuu uu uu

chords are played in this order:

    C    G    Am    F     E   Am   G   C    Am  G   F   G   
    
e|--3----3-----5----1-----0---0----3--------5---3---1---3-------|
B|--5----3-----5----1-----0---1----3---8----5---3---1---3-------|
G|--5----4-----5----2-----1---2----4---9----5---4---2---4-------|
D|--5----5-----7----3-----2---2----5---10---7---5---3---5(x5)---|
A|--3----5-----7----3-----2---0---------------------------------|
E|-------3----------1-----0-------------------------------------|


C                     G
I can't wait to be brutal

Am                                        F
I can't wait wield a hatchet covered with blood

         E                Am         G               C
consume The maggots of my eye gonna peace with ronny burf

            
to meeeeeee  

Am   G    F      G
wuu wu wu wu wuu wuu

C                 G
It's been so long since you've been you

Am           F 
Now you understand It's a theory to dissmiss

E           Am        G           C 
yes yes she loves yes yes yes she loves

E    Am   G    C 
yeah yeah yeah yeah 

F   C    Am     G
La  la la la ala la la la


I'm Pickles the drummer and I get to sing
Here too cause I'm drunk and f**k you Im really really drunk
f**k you dick weed, f**k you too
I gotta go Im gonna go lay down
Im gonna go lay down now
Ah ooh okay bye





ĂŽnscrie-te la newsletter


Like us on Facebook