Awaken Mustakrakish (ver2) Tab - Dethklok






skwisgaar play this in the intro

-----------  -------------------|
-----------  -------------------|
-----------  -------------------|
------2-3--x7------6-6-3-3-2-4--|x4
--2-2------  --2-2--------------|
-----------  -------------------|

while toki plays this

-----------------|
-----------------|
-----------------|
--6------9----4--|x2
--4------7----2--|
-----------------|

both

---------------------------------------|
---------------------------------------|
---------------------------------------|x2
--6-4-6-9-10-9-------------------------|
--4-2-4-7--8-7-6-----------------------|
---------------4-444-44-444-44-444-44--|

solo even its probabley wrong

--------------------------------------------------------------|
-----------------------------------------20-22-23-24b----24b--|
--13-15-16-15b-15-17-18-19b-18-20-21-23b----------------------|
--------------------------------------------------------------|
--------------------------------------------------------------|
--------------------------------------------------------------|

while skwisgaar is playing the solo toki is play

-----------------------------------|
-----------------------------------|
-----------------------------------|x2
--6-6-6-6-6-6-6-6-7-7-7-7-2-2-2-2--|
--4-4-4-4-4-4-4-4-5-5-5-5-2-2-2-2--|
-----------------------------------|

then play intro utill the end

ĂŽnscrie-te la newsletter


Like us on Facebook