Awaken Mustakrakish (ver3) Tab - Dethklok






song-Awaken Mustakrakish
band-Dethklok

It's a pretty simple song so here it is.

Skwisgaar

Intro:
 C|-------------------------------------------|
 G|-------------------------------------------|
D#|-------------------------------------------|
A#|-------------------------------------------|
 F|---7-7-9-10--7-7-9-10--7-7-9-10--7-7-9-10--|
 C|-------------------------------------------|x2

 C|-------------------------------------------|
 G|-------------------------------------------|
D#|-------------------------------------------|
A#|-------9-7----------------9-7--------------|
 F|---7-7-----10-9-7-10--7-7-----10-9-7-10----|
 C|-------------------------------------------|x2

 C|-------------------------------------------|
 G|-------------------------------------------|
D#|-------------------------------------------|
A#|-------------------------------------------|
 F|---7-7-9-10--7-7-9-10--7-7-9-10--7-7-9-10--|
 C|-------------------------------------------|x2

 C|-------------------------------------------|
 G|-------------------------------------------|
D#|-------------------------------------------|
A#|-------9-7----------------9-7--------------|
 F|---7-7-----10-9-7-10--7-7-----10-9-7-10----|
 C|-------------------------------------------|x2

Verse:
 C|-------------------------------------------|
 G|-------------------------------------------|
D#|-------------------------------------------|
A#|--9-----12--7-----9-----12--7--------------|
 F|--7-----10--5-----7-----10--5--------------|
 C|-------------------------------------------|

Chorus:
 C|------------------------------------------------|
 G|------------------------------------------------|
D#|--9---9----12---12-12--12-12--------------------|
A#|--9-9-9-9--12---12-12--12-12--------------------|
 F|--7-9-7-9--10---10-10--10-10--------------------|
 C|----7---7---------------------0-0-0000-0-0-0000-|x2

Solo:
 C|--12-14-15-15~-14-15-17-17~-15-17-19-19~-|
 G|-----------------------------------------|
D#|-----------------------------------------|
A#|-----------------------------------------|
 F|-----------------------------------------|
 C|-----------------------------------------|

 C|--17-19-20-20~-19-20-22~~~~~~~~~---------|
 G|-----------------------------------------|
D#|-----------------------------------------|
A#|-----------------------------------------|
 F|-----------------------------------------|
 C|-----------------------------------------|

End:
 C|-------------------------------------------|
 G|-------------------------------------------|
D#|-------------------------------------------|
A#|-------------------------------------------|
 F|---7-7-9-10--7-7-9-10--7-7-9-10--7-7-9-10--|
 C|-------------------------------------------|x2

 C|-------------------------------------------|
 G|-------------------------------------------|
D#|-------------------------------------------|
A#|-------9-7----------------9-7--------------|
 F|---7-7-----10-9-7-10--7-7-----10-9-7-10----|
 C|-------------------------------------------|x2


Toki:
 
Intro:
 C|-------------------------------------------|
 G|-------------------------------------------|
D#|-------------------------------------------|
A#|---9--9-------9--9------9--9-------9--9----|
 F|---7--7-------7--7------7--7-------7--7----|
 C|-------------------------------------------|

 C|-------------------------------------------|
 G|-------------------------------------------|
D#|-------------------------------------------|
A#|---9--9-----------------7--7---------------|
 F|---7--7-------9--9------5--5-------9--9----|
 C|--------------7--7-----------------7--7----|

 C|-------------------------------------------|
 G|-------------------------------------------|
D#|-------------------------------------------|
A#|---9--9-------9--9------9--9-------9--9----|
 F|---7--7-------7--7------7--7-------7--7----|
 C|-------------------------------------------|

 C|-------------------------------------------|
 G|-------------------------------------------|
D#|-------------------------------------------|
A#|---9--9-----------------7--7---------------|
 F|---7--7-------9--9------5--5-------9--9----|
 C|--------------7--7-----------------7--7----|

Verse:
 C|-------------------------------------------|
 G|-------------------------------------------|
D#|-------------------------------------------|
A#|--9-----12--7-----9-----12--7--------------|
 F|--7-----10--5-----7-----10--5--------------|
 C|-------------------------------------------|

Chorus:
 C|------------------------------------------------|
 G|------------------------------------------------|
D#|--9---9----12---12-12--12-12--------------------|
A#|--9-9-9-9--12---12-12--12-12--------------------|
 F|--7-9-7-9--10---10-10--10-10--------------------|
 C|----7---7---------------------0-0-0000-0-0-0000-|

Rythmn for Solo:
 C|---------------------------------------|
 G|---------------------------------------|
D#|---------------------------------------|
A#|--9-9-9-9-9-9-9--12-12-12-12--7-7-7-7--|
 F|--7-7-7-7-7-7-7--10-10-10-10--5-5-5-5--|
 C|---------------------------------------|x2

End:
 C|-------------------------------------------|
 G|-------------------------------------------|
D#|-------------------------------------------|
A#|---9--9-------9--9------9--9-------9--9----|
 F|---7--7-------7--7------7--7-------7--7----|
 C|-------------------------------------------|

 C|-------------------------------------------|
 G|-------------------------------------------|
D#|-------------------------------------------|
A#|---9--9-----------------7--7---------------|
 F|---7--7-------9--9------5--5-------9--9----|
 C|--------------7--7-----------------7--7----|

 C|-------------------------------------------|
 G|-------------------------------------------|
D#|-------------------------------------------|
A#|---9--9-------9--9------9--9-------9--9----|
 F|---7--7-------7--7------7--7-------7--7----|
 C|-------------------------------------------|

 C|-------------------------------------------|
 G|-------------------------------------------|
D#|-------------------------------------------|
A#|---9--9-----------------7--7---------------|
 F|---7--7-------9--9------5--5-------9--9----|
 C|--------------7--7-----------------7--7----|

ĂŽnscrie-te la newsletter


Like us on Facebook