Awaken Mustakrakish Bass Tab - Dethklok






Song: Awaken Mustakrakish
Band: Dethklok
Standard 5-String Tuning


G|---------------------|
D|---------------------|
A|---------------------|
E|---------------------|
B|--33-----------------|x 4


G|----------------------|
D|----------------------|
A|----------------------|
E|----------------------|
B|--55--44--33--22--11--| x2


G|----------------------|
D|----------------------|
A|----------------------|
E|----------------------|
B|--55----44------------|


G|----------------------------------------|
D|----------------------------------------|
A|----------------------------------------|
E|----------------------------------------|
B|33333333333333355555555555522222222-----|  x2


G|--------------------------------------|
D|--------------------------------------|
A|--------------------------------------|
E|--------------------------------------|
B|--4-2-4-2--8-7-8-6-5-44444444444444---| x1


G|-------------------------------------|
D|-------------------------------------|
A|-------------------------------------|
E|-------------------------------------|
B|--3-3-3-3-3-3-3-3-5-5-5-5-2-2-2-2----| x2


G|---------------------|
D|---------------------|
A|---------------------|
E|---------------------|
B|--33-----------------| x8

ĂŽnscrie-te la newsletter


Like us on Facebook