Awaken Mustakrakish Tab - Dethklok






Sorry i could only get the rhythm

if your good enough at guitar

and actually have a ear for music you can figure it out

its the same tuff over again

E--------------------------------------------------------------------|
B--------------------------------------------------------------------|
G--------------------------------------------------------------------|
D--------------------------------------------------------------------|
A--2-2--3-4(7X)22----------------------------------------------------|
E--------------------------------------------------------------------|

E--------------------------------------------------------------------|
B--------------------------------------------------------------------|
G--------------------------------------------------------------------|
D---5----8---3-------------------------------------------------------|
A---3----6---1-------------------------------------------------------|
E--------------------------------------------------------------------|

E--------------------------------------------------------------------|
B--------------------------------------------------------------------|
G--------------------------------------------------------------------|
D---5---5---8---8--3-----(2X)----------------------------------------|
A---3-5-3-5-6-8-6--1-------------------------------------------------|
E-----3---3---6------------------------------------------------------|

E--------------------------------------------------------------------|
B--------------------------------------------------------------------|
G--------------------------------------------------------------------|
D---5555--5555---8888--3333----(2X)----------------------------------|
A---3333--3333---6666--1111------------------------------------------|
E--------------------------------------------------------------------|

E---------------------------------------------------------------------|
B---------------------------------------------------------------------|
G---------------------------------------------------------------------|
D---------------------------------------------------------------------|
A--2-2--3-4(12X)------------------------------------------------------|
E---------------------------------------------------------------------|

ĂŽnscrie-te la newsletter


Like us on Facebook