Birthday Dethday (ver2) Bass Tab - Dethklok






This is my first tab on here and my interpretation of the song from the
episode "Birthdayface" as heard on the Dethalbum. It's probably easier to play on
a 4-string in drop-C but I like playing it on a standard-tuned 5 string.

~ Let note ring
. Staccato
b Bend
h Hammer on

Intro/Outtro:
G---------------------|
D---------------------|
A---------------------|
E---------------------|
B-1~--3~--4~--8~--1.--|

Riff 1 (slide in with drums)
G-------------------------------------|
D-------------------------------------|
A-------------------------------------|
E-2h3--2h3--2h3------2h3-----2h3------|
B----11---11---114b-----114b----114b--|

Riff 2
G-----------|
D-----------|
A-----------|
E-----------|
B-43654343--|

Riff 3
G----------------------------------------------------------------|
D----------------------------------------------------------------|
A----------------------------------------------------------------|
E------------------3-4------3-4-------------------3-2-------3-2--|
B-1.-1.-1.-1.-1111-----1111------1.-1.-1.-1.-1111------1111------|

G----------------------------|
D----------------------------|
A----------------------------|
E------------------4-3-2--1--|
B-1.-1.-1.-1.-1111-----------|

So there's basically all the parts of it. I think you can figure out how many
times to play each and in what order.

ĂŽnscrie-te la newsletter


Like us on Facebook