Bloodrocuted ver4 Tab - Dethklok






#----------------------------------PLEASE NOTE---------------------------------#
#This file is the author's own work and represents their interpretation of the #
#song. You may only use this file for private study, scholarship, or research. #
#------------------------------------------------------------------------------#

BLOODROCUTED
As recorded by Dethklok
(From the 2007 Album DETHALBUM)

Transcribed by Mr Lordi


Words and Music by Brendon Small

Gtr I (C F Bb Eb G C) - 'Skwisgaar (Lead)'
Gtr II (C F Bb Eb G C) - 'Toki (Rhythm)'
Gtr III (C F Bb Eb G C) - 'Solo Boosting Guitars'
Gtr IV (C F Bb Eb G C) - 'Extra Rhythm Guitars'

 Intro
  Moderately Fast  Q=187
 4/4
  Gtrs I, II
  PM--------------|     PM--------------------|
  E E E E S S S S E E   E E E E S S S S S S S S   E E E E S S S S E E
|---------------------|-------------------------|---------------------|
|---------------------|-------------------------|---------------------|
|---------------------|-------------------------|---------------------|
|---------------------|-------------------------|---------------------|
|-2---2-----------2---|-2---2-------------------|-2---2-----------2---|
|-0---0---3-3-2-0-0---|-0---0---3-3-2-0-3-3-2-0-|-0---0---3-3-2-0-0---|


                    PM--------------|     PM--------------------|
  E E E E E E E E   E E E E S S S S E E   E E E E S S S S S S S S
|-----------------|---------------------|-------------------------|
|-----------------|---------------------|-------------------------|
|-----------------|---------------------|-------------------------|
|---5-5-----7-7---|---------------------|-------------------------|
|-2-3-3---2-5-5---|-2---2-----------2---|-2---2-------------------|
|-0-------0-------|-0---0---3-3-2-0-0---|-0---0---3-3-2-0-3-3-2-0-|


  E E E E S S S S E E   E E E E E E E E
|---------------------|-----------------||
|---------------------|-----------------||
|---------------------|-----------------||
|---------------------|---5-5-----7-7---||
|-2---2-----------2---|-2-3-3---2-5-5---||
|-0---0---3-3-2-0-0---|-0-------0-------||


 Verse
  E E E E E Q.     E E E E E E E E   E E E E E E Q    E  E E  E  E E E E
|----------------|-----------------|----------------|--------------------|
|----------------|-----------------|----------------|--------------------|
|---------7------|-------------7---|----------------|--------------------|
|-7-9-7-9-5------|---9-7-9-7-9-5---|---5-5-5-5-7----|--------------------|
|-5-7-5-7--------|---7-5-7-5-7-----|---3-3-3-3-5----|---10-7-10-12---2---|
|----------------|-----------------|----------------|----8-5--8-10---0---|


  E E E E E Q.     E E E E E E E E   E E E E E E Q    E  E E  E  E E E E
|----------------|-----------------|----------------|--------------------||
|----------------|-----------------|----------------|--------------------||
|---------7------|-------------7---|----------------|--------------------||
|-7-9-7-9-5------|---9-7-9-7-9-5---|---5-5-5-5-7----|--------------------||
|-5-7-5-7--------|---7-5-7-5-7-----|---3-3-3-3-5----|---10-7-10-12---2---||
|----------------|-----------------|----------------|----8-5--8-10---0---||


 Break
  PM--------------|     PM--------------------|
  E E E E S S S S E E   E E E E S S S S S S S S   E E E E S S S S E E
|---------------------|-------------------------|----------------------|
|---------------------|-------------------------|----------------------|
|---------------------|-------------------------|----------------------|
|---------------------|-------------------------|----------------------|
|-2---2-----------2---|-2---2-------------------|-2---2-----------2----|
|-0---0---3-3-2-0-0---|-0---0---3-3-2-0-3-3-2-0-|-0---0---3-3-2-0-0----|


                    PM--------------|     PM--------------------|
  E E E E E E E E   E E E E S S S S E E   E E E E S S S S S S S S
|-----------------|---------------------|-------------------------|
|-----------------|---------------------|-------------------------|
|-----------------|---------------------|-------------------------|
|---5-5-----7-7---|---------------------|-------------------------|
|-2-3-3---2-5-5---|-2---2-----------2---|-2---2-------------------|
|-0-------0-------|-0---0---3-3-2-0-0---|-0---0---3-3-2-0-3-3-2-0-|


  E E E E S S S S E E   E E E E E E E E
|---------------------|-----------------||
|---------------------|-----------------||
|---------------------|-----------------||
|---------------------|---5-5-----7-7---||
|-2---2-----------2---|-2-3-3---2-5-5---||
|-0---0---3-3-2-0-0---|-0-------0-------||


 Verse 2
  E E E E E Q.     E E E E E E E E   E E E E E E Q    E  E E  E  E E E E
|----------------|-----------------|----------------|--------------------|
|----------------|-----------------|----------------|--------------------|
|---------7------|-------------7---|----------------|--------------------|
|-7-9-7-9-5------|---9-7-9-7-9-5---|---5-5-5-5-7----|--------------------|
|-5-7-5-7--------|---7-5-7-5-7-----|---3-3-3-3-5----|---10-7-10-12---2---|
|----------------|-----------------|----------------|----8-5--8-10---0---|


  E E E E E Q.     E E E E E E E E   E E E E E E Q    E  E E  E  E E E E
|----------------|-----------------|----------------|--------------------||
|----------------|-----------------|----------------|--------------------||
|---------7------|-------------7---|----------------|--------------------||
|-7-9-7-9-5------|---9-7-9-7-9-5---|---5-5-5-5-7----|--------------------||
|-5-7-5-7--------|---7-5-7-5-7-----|---3-3-3-3-5----|---10-7-10-12---2---||
|----------------|-----------------|----------------|----8-5--8-10---0---||


 Now What Did They Say...
  PM--------------|     PM--------------|
  E E E E S S S S E E   E E E E S S S S E E
|---------------------|---------------------|
|---------------------|---------------------|
|---------------------|---------------------|
|---------------------|---------------------|
|-2---2-----------2---|-2---2-----------2---|
|-0---0---3-3-2-0-0---|-0---0---3-3-2-0-0---|


  PM--------------|     PM--------------|
  E E E E S S S S E E   E E E E S S S S E E
|---------------------|----------------------|
|---------------------|----------------------|
|---------------------|----------------------|
|---------------------|----------------------|
|-5---5-----------5---|-5---5-----------5----|
|-3---3---5-5-3-2-3---|-3---3---5-5-3-2-3----|


  PM--------------|     PM--------------|
  E E E E S S S S E E   E E E E S S S S E E
|---------------------|---------------------|
|---------------------|---------------------|
|---------------------|---------------------|
|---------------------|---------------------|
|-2---2-----------2---|-2---2-----------2---|
|-0---0---3-3-2-0-0---|-0---0---3-3-2-0-0---|


  PM--------------|     PM--------------|
  E E E E S S S S E E   E E E E S S S S E E
|---------------------|----------------------||
|---------------------|----------------------||
|---------------------|----------------------||
|---------------------|----------------------||
|-5---5-----------5---|-5---5-----------5----||
|-3---3---5-5-3-2-3---|-3---3---5-5-3-2-3----||


 Generator
  E E E E E E E E   E E E E E E E E   E E E E E E E E   E E E E  E E E E
|-----------------|-----------------|-----------------|------------------|
|-----------------|-----------------|-----------------|------------------|
|-----------------|-----------------|-----------------|------------------|
|-----------------|-5-------5-------|-5-------5-------|-8-------10-------|
|-5-------5-------|-3-3-3-3-3-3-3-3-|-3-3-3-3-3-3-3-3-|-6-6-6-6--8-8-8-8-|
|-3-3-3-3-3-3-3-3-|-----------------|-----------------|------------------|


  E E E E E E E E   E E E E E E E E   E E E E E E E E   E E E E  E E E E
|-----------------|-----------------|-----------------|------------------||
|-----------------|-----------------|-----------------|------------------||
|-----------------|-----------------|-----------------|------------------||
|-----------------|-5-------5-------|-5-------5-------|-8-------10-------||
|-5-------5-------|-3-3-3-3-3-3-3-3-|-3-3-3-3-3-3-3-3-|-6-6-6-6--8-8-8-8-||
|-3-3-3-3-3-3-3-3-|-----------------|-----------------|------------------||


 Bloodrocuted
  PM--------------|     PM--------------|
  E E E E S S S S E E   E E E E S S S S E E
|---------------------|---------------------|
|---------------------|---------------------|
|---------------------|---------------------|
|---------------------|---------------------|
|-2---2-----------2---|-2---2-----------2---|
|-0---0---3-3-2-0-0---|-0---0---3-3-2-0-0---|


  PM--------------|     PM--------------|
  E E E E S S S S E E   E E E E S S S S E E
|---------------------|----------------------||
|---------------------|----------------------||
|---------------------|----------------------||
|---------------------|----------------------||
|-2---2-----------2---|-2---2-----------2----||
|-0---0---3-3-2-0-0---|-0---0---3-3-2-0-0----||


 Bridge
  E E E E E E E E   E E E E E E E E   E E E E E E E E   E E E E E E E E
|-----------------|-----------------|-----------------|-----------------|
|-----------------|-----------------|-----------------|-----------------|
|-----------------|-----------------|-----------------|-----------------|
|-----------------|-----------------|-----------------|-----------------|
|-----------------|---------------2-|-----------------|-----------2-5-2-|
|-0-0-0-0-0-2-3-2-|-0-0-0-0-0-2-3---|-0-0-0-0-0-2-3-2-|-0-0-0-0-0-------|


  E E E E E E E E   E E E E E E E E   E E E E E E E E   E E E E E E E E
|-----------------|-----------------|-----------------|-----------------|
|-----------------|-----------------|-----------------|-----------------|
|-----------------|-----------------|-----------------|-----------------|
|-----------------|-----------------|-----------------|-----------------|
|-----------------|---------------2-|-----------------|-----------2-5-2-|
|-0-0-0-0-0-2-3-2-|-0-0-0-0-0-2-3---|-0-0-0-0-0-2-3-2-|-0-0-0-0-0-------|


  E E E E E E E E   E E E E E E E E   E E E E E E E E   E E E E E E E E
|-----------------|-----------------|-----------------|-----------------|
|-----------------|-----------------|-----------------|-----------------|
|-7-7-7-7-7-7-7-7-|-7-7-7-7-7-7-7-7-|-7-7-7-7-7-7-7-7-|-7-7-7-7-7-7-7-7-|
|-----------------|-----------------|-----------------|-----------------|
|-5-5-5-5-5-5-5-5-|-5-5-5-5-5-5-5-5-|-5-5-5-5-5-5-5-5-|-5-5-5-5-5-5-5-5-|
|-----------------|-----------------|-----------------|-----------------|


  E E E E E E E E   E E E E E E E E   E E E E E E E E   E E E E E E E E
|-----------------|-----------------|-----------------|-----------------|
|-----------------|-----------------|-----------------|-----------------|
|-----------------|-----------------|-----------------|-----------------|
|-----------------|-----------------|-----------------|-----------------|
|-----------------|---------------2-|-----------------|-----------2-5-2-|
|-0-0-0-0-0-2-3-2-|-0-0-0-0-0-2-3---|-0-0-0-0-0-2-3-2-|-0-0-0-0-0-------|


                                       ~~~~~~~~~~~~~~~~~~~~~~~~~~~~~~~~~~~~~~~~~~~~~~~~
  E E E E E E E E   E E E E E E E E    W
|-----------------|-----------------|-------------------------------------------------|
|-----------------|-----------------|--8b10-------------------------------------------|
|-7-7-7-7-7-7-7-7-|-7-7-7-7-7-7-7-7-|-------------------------------------------------|
|-----------------|-----------------|-------------------------------------------------|
|-5-5-5-5-5-5-5-5-|-5-5-5-5-5-5-5-5-|-------------------------------------------------|
|-----------------|-----------------|-------------------------------------------------|
|
| Gtr II
| E E E E E E E E   E E E E E E E E    E      E     E     E     E     E     E     E
|-----------------|-----------------|-------------------------------------------------|
|-----------------|-----------------|-------------------------------------------------|
|-7-7-7-7-7-7-7-7-|-7-7-7-7-7-7-7-7-|--5------5-----5-----5-----5-----5-----5-----5---|
|-----------------|-----------------|-------------------------------------------------|
|-5-5-5-5-5-5-5-5-|-5-5-5-5-5-5-5-5-|--3------3-----3-----3-----3-----3-----3-----3---|
|-----------------|-----------------|-------------------------------------------------|
|
| Gtr III
|                                      1_____/0____1____/0____1____/0____1____/0___
|                                      ~~~~~~~~~~~~~~~~~~~~~~~~~~~~~~~~~~~~~~~~~~~~~~~~
| W                 W                  E     +E    +E    +E    +E    +E    +E    +E
|-----------------|-----------------|-12b14-(12)--(12)--(12)--(12)--(12)--(12)--(12)--|
|-----------------|-----------------|-13b15-(13)--(13)--(13)--(13)--(13)--(13)--(13)--|
|-----------------|-----------------|-------------------------------------------------|
|-----------------|-----------------|-------------------------------------------------|
|-----------------|-----------------|-------------------------------------------------|
|-----------------|-----------------|-------------------------------------------------|


 ~~~~~~~
   +W
|------------------------------------------------||
|--(8)-------------------------------------------||
|------------------------------------------------||
|------------------------------------------------||
|------------------------------------------------||
|------------------------------------------------||
|
|   E     E     E     E     E     E     E     E
|------------------------------------------------||
|------------------------------------------------||
|---5-----5-----5-----5-----5-----5-----5-----5--||
|------------------------------------------------||
|---3-----3-----3-----3-----3-----3-----3-----3--||
|------------------------------------------------||
|
|   1____/0____1____/0____1____/0____1____/
|~~~~~~~~~~~~~~~~~~~~~~~~~~~~~~~~~~~~~~~~~~~~~~~~
|  +E    +E    +E    +E    +E    +E    +E    +E
|-(12)--(12)--(12)--(12)--(12)--(12)--(12)--(12)-||
|-(13)--(13)--(13)--(13)--(13)--(13)--(13)--(13)-||
|------------------------------------------------||
|------------------------------------------------||
|------------------------------------------------||
|------------------------------------------------||


 Solo
   Q    Q    Q        E  E    +E   E  S  S  S  S  E    E    E    E
|-12-----------------------|-----------------------------------------|
|------13---12-------13-12-|-(12)------------------------------------|
|--------------------------|------12-11-12-11-12------12---11--------|
|--------------------------|---------------------14-------------14---|
|--------------------------|-----------------------------------------|
|--------------------------|-----------------------------------------|
|
| Gtrs II, IV
|  PM----------------|         PM----------------------------------|
|  E E  E E  S S S S  E  E     E   E  E     E     S S  S S  S S  S S
|--------------------------|-----------------------------------------|
|--------------------------|-----------------------------------------|
|--------------------------|-----------------------------------------|
|--------------------------|-----------------------------------------|
|--2----2-------------2----|---2------2------------------------------|
|--0----0----3-3-2-0--0----|---0------0-----------3-3--2-0--3-3--2-0-|


                                             ~~
   S  S  S  S  S  S  S  S  S  S  S  S  S  S  E
|----------------------------------------------|
|----------------------------------------------|
|----------------------------------------------|
|-14-12----------------------------------12-14-|
|-------15-14-12----------------12-14-15-------|
|----------------15-14-12-14-15----------------|
|
|  E     E     E     E     S  S  S  S  E     E
|----------------------------------------------|
|----------------------------------------------|
|----------------------------------------------|
|----------------------------------------------|
|--2-----------2-----------------------2-------|
|--0-----------0-----------3--3--2--0--0-------|


                          Gtrs I, II
    ~~~~~~~~~~
   +E   E  H.              Q.      S  S  S  E.      Q
|-----------------------|--------------------------17---|
|-----------------------|-12------15-12-15-12-----------|
|------16---------------|-------------------------------|
|-(14)----16------------|-------------------------------|
|-----------------------|-------------------------------|
|-----------------------|-------------------------------|
|
|                          PM----------------------|
|   E   E  E  E E E E E    E  E E  E     S  S  S S  E E
|-----------------------|-------------------------------|
|-----------------------|-------------------------------|
|-----------------------|-------------------------------|
|-------5--5------7-7---|-------------------------------|
|---2---3--3----2-5-5---|--2----2-------------------2---|
|---0-----------0-------|--0----0--------3--3--2-0--0---|


   Q.      S  S  S  E.      Q
|-15------15-12-15-12------17--------|
|------------------------------------|
|------------------------------------|
|------------------------------------|
|------------------------------------|
|------------------------------------|
|
|  PM-----------------------------|
|  E  E E  E     S  S  S S  S S S S
|------------------------------------|
|------------------------------------|
|------------------------------------|
|------------------------------------|
|--2----2----------------------------|
|--0----0--------3--3--2-0--3-3-2-0--|


   ~~~~~~~~~~~~~~~~~~~~~~~~~~~~~~~~~~~~~~~~~~~
   Q    Q    Q        Q      Q    Q    Q    Q
|-15--------17------------|-19--------20--------||
|------17------------19---|------20--------22---||
|-------------------------|---------------------||
|-------------------------|---------------------||
|-------------------------|---------------------||
|-------------------------|---------------------||
|
| Gtr II
|  ~~~~~~~~~~~~~~~~~~~~~~~~~~~~~~~~~~~~~~~~~~~
|  Q    Q    Q        Q      Q    Q    Q    Q
|-------------------------|---------------------||
|-12--------13------------|-15--------17--------||
|------12------------14---|------16--------17---||
|-------------------------|---------------------||
|-------------------------|---------------------||
|-------------------------|---------------------||
|
| Gtr IV
|  E E  E E  S S S S  E E    E E  E E  E E  E E
|-------------------------|---------------------||
|-------------------------|---------------------||
|-------------------------|---------------------||
|-------------------------|----5--5------7--7---||
|--2----2-------------2---|--2-3--3----2-5--5---||
|--0----0----3-3-2-0--0---|--0---------0--------||


 Verse
    ~~~~~~~~~~~~~~~~~~
    E    E    E    E    E  Q.       E  E E E E E E E
|-------------------------------|--------------------|
|-(24)-(24)-(24)-(24)-(24)------|--------------------|
|-----------------------7-------|----------------7---|
|---7----9----7----9----5-------|------9-7-9-7-9-5---|
|---5----7----5----7------------|------7-5-7-5-7-----|
|-------------------------------|--------------------|
|
|   ~~~~~~~~~~~~~~~~~~
|   E    E    E    E    E  Q.       E  E E E E E E E
|-------------------------------|--------------------|
|--17--(17)-(17)-(17)-(17)------|--------------------|
|-----------------------7-------|----------------7---|
|---7----9----7----9----5-------|------9-7-9-7-9-5---|
|---5----7----5----7------------|------7-5-7-5-7-----|
|-------------------------------|--------------------|
|
|   ~~~~~~~~~~~~~~~~~~~~~~~~~~~~~~~~~~~
|   W                              +W
|--19---------------------------|-(19)---------------|
|--17---------------------------|-(17)---------------|
|-------------------------------|--------------------|
|-------------------------------|--------------------|
|-------------------------------|--------------------|
|-------------------------------|--------------------|


  E E E E E E Q    E  E E  E  E E E E
|----------------|--------------------|
|----------------|--------------------|
|----------------|--------------------|
|---5-5-5-5-7----|--------------------|
|---3-3-3-3-5----|---10-7-10-12---2---|
|----------------|----8-5--8-10---0---|
|
| E E E E E E Q    E  E E  E  E E E E
|----------------|--------------------|
|----------------|--------------------|
|----------------|--------------------|
|---5-5-5-5-7----|--------------------|
|---3-3-3-3-5----|---10-7-10-12---2---|
|----------------|----8-5--8-10---0---|
|
| W                W
|----------------|--------------------|
|----------------|--------------------|
|----------------|--------------------|
|----------------|--------------------|
|----------------|--------------------|
|----------------|--------------------|


  Gtrs I, II
  E E E E E Q.     E E E E E E E E   E E E E E E Q    E  E E  E  E E E E
|----------------|-----------------|----------------|--------------------||
|----------------|-----------------|----------------|--------------------||
|---------7------|-------------7---|----------------|--------------------||
|-7-9-7-9-5------|---9-7-9-7-9-5---|---5-5-5-5-7----|--------------------||
|-5-7-5-7--------|---7-5-7-5-7-----|---3-3-3-3-5----|---10-7-10-12---2---||
|----------------|-----------------|----------------|----8-5--8-10---0---||


 Outro
   ~~~~~~~~~~~~~~~~~~~~~~~~~~~~~~~~~~~~~~~~~~~~~~~
   H        Q        Q      H        H
|------------------------|-----------------------|
|------------------------|-----------------------|
|-12----------------12---|-14-------12-----------|
|----------12------------|-----------------------|
|------------------------|-----------------------|
|------------------------|-----------------------|
|
| Gtr IV
|  PM---------------|       PM---------------|
|  E E E E  S S S S  E E    E E E E  S S S S E E
|------------------------|-----------------------|
|------------------------|-----------------------|
|------------------------|-----------------------|
|------------------------|-----------------------|
|--2---2-------------2---|--2---2------------2---|
|--0---0----3-3-2-0--0---|--0---0----3-3-2-0-0---|


 ~~~~~~~~~~~~~~~~~~~~~~~~~~~~~~~~~~~~~~~~~~~~~~~
   H        Q        Q      H        Q        Q
|------------------------|-------------------------|
|-------------------12---|-------------------------|
|-12-------14------------|-11-------12-------14----|
|------------------------|-------------------------|
|------------------------|-------------------------|
|------------------------|-------------------------|
|
|  PM---------------|       PM---------------|
|  E E E E  S S S S  E E    E E E E  S S S S  E E
|------------------------|-------------------------|
|------------------------|-------------------------|
|------------------------|-------------------------|
|------------------------|-------------------------|
|--5---5-------------5---|--5---5-------------5----|
|--3---3----5-5-3-2--3---|--3---3----5-5-3-2--3----|


   ~~~~~~~~~~~~~~~~~~~~~~~~~~~~~~~~~~~~~~~~~~~~~~~
   H        Q        Q      H        H
|------------------------|-----------------------|
|------------------------|-----------------------|
|-12----------------12---|-14-------12-----------|
|----------12------------|-----------------------|
|------------------------|-----------------------|
|------------------------|-----------------------|
|
| Gtr II
|  ~~~~~~~~~~~~~~~~~~~~~~~~~~~~~~~~~~~~~~~~~~~~~~~
|  H        Q        Q      H        H
|------------------------|-----------------------|
|-12----------------12---|-13-------12-----------|
|----------12------------|-----------------------|
|------------------------|-----------------------|
|------------------------|-----------------------|
|------------------------|-----------------------|
|
| Gtr IV
|  PM---------------|       PM---------------|
|  E E E E  S S S S  E E    E E E E  S S S S E E
|------------------------|-----------------------|
|------------------------|-----------------------|
|------------------------|-----------------------|
|------------------------|-----------------------|
|--2---2-------------2---|--2---2------------2---|
|--0---0----3-3-2-0--0---|--0---0----3-3-2-0-0---|


 ~~~~~~~~~~~~~~~~~~~~~~~~~~~~~~~~~~~~~~~~~~~~~~~
   H        Q        Q      H        Q        Q
|------------------------|-------------------------|
|-------------------12---|-------------------------|
|-12-------14------------|-11-------12-------14----|
|------------------------|-------------------------|
|------------------------|-------------------------|
|------------------------|-------------------------|
|
|~~~~~~~~~~~~~~~~~~~~~~~~~~~~~~~~~~~~~~~~~~~~~~~
|  H        Q        Q      H        Q        Q
|------------------------|-------------------------|
|-12-------13-------15---|-10-------12-------13----|
|------------------------|-------------------------|
|------------------------|-------------------------|
|------------------------|-------------------------|
|------------------------|-------------------------|
|
|  PM---------------|       PM---------------|
|  E E E E  S S S S  E E    E E E E  S S S S  E E
|------------------------|-------------------------|
|------------------------|-------------------------|
|------------------------|-------------------------|
|------------------------|-------------------------|
|--5---5-------------5---|--5---5-------------5----|
|--3---3----5-5-3-2--3---|--3---3----5-5-3-2--3----|


   ~~~~~~~~~~~~~~~~~~~~~~~~~~~~~~~~~~~~~~~~~~~~~~~
   H        Q        Q      H        H
|-15-------15-------15---|-17-------15-----------|
|------------------------|-----------------------|
|-12----------------12---|-14-------12-----------|
|----------12------------|-----------------------|
|------------------------|-----------------------|
|------------------------|-----------------------|
|
|  ~~~~~~~~~~~~~~~~~~~~~~~~~~~~~~~~~~~~~~~~~~~~~~~
|  H        Q        Q      H        H
|------------------------|-----------------------|
|-12----------------12---|-13-------12-----------|
|----------12------------|-----------------------|
|------------------------|-----------------------|
|------------------------|-----------------------|
|------------------------|-----------------------|
|
|  PM---------------|       PM---------------|
|  E E E E  S S S S  E E    E E E E  S S S S E E
|------------------------|-----------------------|
|------------------------|-----------------------|
|------------------------|-----------------------|
|------------------------|-----------------------|
|--2---2-------------2---|--2---2------------2---|
|--0---0----3-3-2-0--0---|--0---0----3-3-2-0-0---|


 ~~~~~~~~~~~~~~~~~~~~~~~~~~~~~~~~~~~~~~~~~~~~~~~
   H        Q        Q      H        Q        Q
|-15-------17-------19---|-14-------15-------17----|
|-------------------12---|-------------------------|
|-12-------14------------|-11-------12-------14----|
|------------------------|-------------------------|
|------------------------|-------------------------|
|------------------------|-------------------------|
|
|~~~~~~~~~~~~~~~~~~~~~~~~~~~~~~~~~~~~~~~~~~~~~~~
|  H        Q        Q      H        Q        Q
|------------------------|-------------------------|
|-12-------13-------15---|-10-------12-------13----|
|------------------------|-------------------------|
|------------------------|-------------------------|
|------------------------|-------------------------|
|------------------------|-------------------------|
|
|  PM---------------|       PM---------------|
|  E E E E  S S S S  E E    E E E E  S S S S  E E
|------------------------|-------------------------|
|------------------------|-------------------------|
|------------------------|-------------------------|
|------------------------|-------------------------|
|--5---5-------------5---|--5---5-------------5----|
|--3---3----5-5-3-2--3---|--3---3----5-5-3-2--3----|


   ~~~~~~~~~~~~~~~~~~~~~~~~~~~~~~~~~~~~~~~~~~~~~~~~~~~
   H         Q          Q       H        H
|-15--------15---------15----|-17-------15-----------|
|----------------------------|-----------------------|
|-12-------------------12----|-14-------12-----------|
|-----------12---------------|-----------------------|
|----------------------------|-----------------------|
|----------------------------|-----------------------|
|
|  ~~~~~~~~~~~~~~~~~~~~~~~~~~~~~~~~~~~~~~~~~~~~~~~~~~~
|  H         Q          Q       H        H
|-12-------(12)-------(12)---|-12-------12-----------|
|-12-------------------12----|-13-------12-----------|
|-----------12---------------|-----------------------|
|----------------------------|-----------------------|
|----------------------------|-----------------------|
|----------------------------|-----------------------|
|
|  PM-----------------|         PM---------------|
|  E E E E   S  S S S   E  E    E E E E  S S S S E E
|----------------------------|-----------------------|
|----------------------------|-----------------------|
|----------------------------|-----------------------|
|----------------------------|-----------------------|
|--2---2----------------2----|--2---2------------2---|
|--0---0-----3--3-2-0---0----|--0---0----3-3-2-0-0---|


 ~~~~~~~~~~~~~~~~~~~~~~~~~~~~~~~~~~~~~~~~~~~~~~~~~~~
   H         Q          Q       H        Q        Q
|-15--------17---------19----|-14-------15-------17----|
|----------------------12----|-------------------------|
|-12--------14---------------|-11-------12-------14----|
|----------------------------|-------------------------|
|----------------------------|-------------------------|
|----------------------------|-------------------------|
|
|~~~~~~~~~~~~~~~~~~~~~~~~~~~~~~~~~~~~~~~~~~~~~~~~~~~
|  H         Q          Q       H        Q        Q
|-10-------(10)-------(10)---|-10-------10-------10----|
|-12--------13---------15----|-10-------12-------13----|
|----------------------------|-------------------------|
|----------------------------|-------------------------|
|----------------------------|-------------------------|
|----------------------------|-------------------------|
|
|  PM-----------------|         PM---------------|
|  E E E E   S  S S S   E  E    E E E E  S S S S  E E
|----------------------------|-------------------------|
|----------------------------|-------------------------|
|----------------------------|-------------------------|
|----------------------------|-------------------------|
|--5---5----------------5----|--5---5-------------5----|
|--3---3-----5--5-3-2---3----|--3---3----5-5-3-2--3----|


  Gtrs I, II, IV
  PM--------------|
  E E E E S S S S E E   W
|---------------------|------*|
|---------------------|------*|
|---------------------|------*|
|---------------------|------*|
|-2---2-----------2---|------*|
|-0---0---3-3-2-0-0---|------*|



Duration Legend
---------------
W - whole; H - half; Q - quarter; E - 8th; S - 16th; T - 32nd; X - 64th; a - acciaccatura
+ - note tied to previous; . - note dotted; .. - note double dotted
Uncapitalized letters represent notes that are staccato (1/2 duration)
Irregular groupings are notated above the duration line
Duration letters will always appear directly above the note/fret number it represents the
duration for.  Duration letters with no fret number below them represent rests.  Multi-
bar rests are notated in the form Wxn, where n is the number of bars to rest for.  Low
melody durations appear below the staff

Tablature Legend
----------------
 h   - hammer-on
 p   - pull-off
 b   - bend
 pb  - pre-bend
 r   - bend release (if no number after the r, then release immediately)
 /  - slide into or out of (from/to "nowhere")
 s   - legato slide
 S   - shift slide
 - natural harmonic
[n]  - artificial harmonic
n(n) - tapped harmonic
 ~   - vibrato
 tr  - trill
 T   - tap
 TP  - trem. picking
 PM  - palm muting
n/  - tremolo bar dip; n = amount to dip
 n  - tremolo bar down
 n/  - tremolo bar up
/n  - tremolo bar inverted dip
 =   - hold bend; also acts as connecting device for hammers/pulls
 <> - volume swell (louder/softer)
 x   - on rhythm slash represents muted slash
 o   - on rhythm slash represents single note slash

Misc Legend
-----------
 |  - bar
||  - double bar
||o - repeat start
o|| - repeat end
*|  - double bar (ending)
 :  - bar (freetime)
 $  - Segno
 &  - Coda
Tempo markers -  = BPM(8/16=s8/s16), where s8 = swing 8ths, s16 = swing 16ths


ĂŽnscrie-te la newsletter


Like us on Facebook