Dethharmonic Tab - Dethklok






tabbed by: Shredex
Tunning: C standard

{#} = ghost note
 <  = fade into

     gtr 1
 C4|------------------|------------------|------------------|-----------------|
 G3|------------------|------------------|------------------|-----------------|
E*3|------------------|------------------|------------------|-----------------|
B*2|------------------|------------------|------------------|-----------------|
 F2|-----7------------|------7-----------|-----7------------|------7----------|
 C2|-0-7---7-8-7-5-7--|--0-7---7-8-7-5-7-|-0-7---7-8-7-5-7--|-0-7---7-8-7-5-7-|
   | gtr 2
 C4|------------------|------------------|------------------|----------------|
 G3|------------------|------------------|------------------|----------------|
E*3|------------------|------------------|------------------|----------------|
B*2|-2----------------|-{2}--------------|-5----------------|-{5}------------|
 F2|-2----------------|-{2}--------------|-5----------------|-{5}------------|
 C2|-0----------------|-{0}--------------|-3----------------|-{3}------------|

     gtr 1
 C4|------------------|------------------|------------------|-----------------|
 G3|------------------|------------------|------------------|-----------------|
E*3|------------------|------------------|------------------|-----------------|
B*2|------------------|------------------|------------------|-----------------|
 F2|-----7------------|------7-----------|-----7------------|------7----------|
 C2|-0-7---7-8-7-5-7--|--0-7---7-8-7-5-7-|-0-7---7-8-7-5-7--|-0-7---7-8-7-5-7-|
   | gtr 2
 C4|------------------|------------------|------------------|----------------|
 G3|------------------|------------------|------------------|----------------|
E*3|------------------|------------------|------------------|----------------|
B*2|-9----------------|-{9}--------------|-8----------------|-{8}------------|
 F2|-9----------------|-{9}--------------|-8----------------|-{8}------------|
 C2|-7----------------|-{7}--------------|-6----------------|-{6}------------|

     gtr 1
 C4|------------------|------------------|------------------|-----------------|
 G3|------------------|------------------|------------------|-----------------|
E*3|------------------|------------------|------------------|-----------------|
B*2|------------------|------------------|------------------|-----------------|
 F2|-----7------------|------7-----------|-----7------------|------7----------|
 C2|-0-7---7-8-7-5-7--|--0-7---7-8-7-5-7-|-0-7---7-8-7-5-7--|-0-7---7-8-7-5-7-|
   | gtr 2
 C4|------------------|-

ĂŽnscrie-te la newsletter


Like us on Facebook