Duncan Hills Coffee Jingle Tab - Dethklok






  Duncan Hills coffee jingle- Dethklok
tuning: Drop D

Fig. 1 (sweep picking)
|-13h17p13----------13h17-15-17-18-17---------|
|----------15----15-------------------15-17~~-|
|-------------14------------------------------|
|---------------------------------------------|
|---------------------------------------------|
|---------------------------------------------|

Fig. 2 (sweep picking)
|-12h15p12----------------------12h15-|
|----------13----------------13-------|
|-------------12----------12----------|
|----------------14----14-------------|
|-------------------15----------------|
|-------------------------------------|

Fig. 3
|-12b-12-10-11---13b-13-12----|
|--------------------------13-|
|-----------------------------|
|-----------------------------|
|-----------------------------|
|-----------------------------|

Fig. 4 (can pick or pull off) whichever you prefer
|-15-13-12----------13-12-10-----------------------------|
|----------15-13-12----------13-12-10--------------------|
|-------------------------------------12-10-9------------|
|---------------------------------------------12-10-9-12-|
|--------------------------------------------------------|
|--------------------------------------------------------|


Fig. 1 (sweep picking)
|-13h17p13----------13h17-15-17-18-17---------|
|----------15----15-------------------15-17~~-|
|-------------14------------------------------|
|---------------------------------------------|
|---------------------------------------------|
|---------------------------------------------|

Fig. 2 (sweep picking)
|-12h15p12----------------------12h15-|
|----------13----------------13-------|
|-------------12----------12----------|
|----------------14----14-------------|
|-------------------15----------------|
|-------------------------------------|

Fig. 3
|-12b-12-10-11---13b-13-12----|
|--------------------------13-|
|-----------------------------|
|-----------------------------|
|-----------------------------|
|-----------------------------|

Fig. 5
|-15b-(17)-15-13-17--17b-17-|
|---------------------------|
|---------------------------|
|---------------------------|
|---------------------------|
|---------------------------|


Fig. 3
|-12b-12-10-11---13b-13-12----|
|--------------------------13-|
|-----------------------------|
|-----------------------------|
|-----------------------------|
|-----------------------------|


Fig. 5
|-15b-(17)-15-13-17--17b-17-|
|---------------------------|
|---------------------------|
|---------------------------|
|---------------------------|
|---------------------------|

not sure on this part
|-20-18-17----------------------|
|----------20-18-17-------------|
|-------------------19-18---19b-|
|-------------------------------|
|-------------------------------|
|-------------------------------|

ĂŽnscrie-te la newsletter


Like us on Facebook