Go Forth And Die (ver3) Tab - Dethklok






Heres go forth and die the other tabs were ok but i just wasnt feelin it so heres how i 
its played. Its tuned C standard(C F A# D# G C).

Intro
|--------------------------------------------------------|
|--------------------------------------------------------|
|--------------------------------------------------------|
|------------------------------------------------------5-|
|------7-6-7---------7-6-7---------7-6-7-7-------9-8-9-7-|
|0-0-0-------8-0-0-0-------7-0-0-0---------0-0-0---------|

Chorus
|--------------------------------------------------------|
|--------------------------------------------------------|
|-----------------------------------------------------(4)|
|------5-4-5---------5-4-5---------5-4-5-5-------7-6-7-5-|
|------7-6-7---------7-6-7---------7-6-7-7-------9-8-9-7-|
|0-0-0-------8-0-0-0-------7-0-0-0---------0-0-0---------|()are optional!!!!

|--------------------------------------------------------|
|--------------------------------------------------------|
|---------------------------------------(4)-----------(4)|
|------5-4-5---------5-4-5---------5-4-5-5-------7-6-7-5-|
|------7-6-7(7)------7-6-7(7)------7-6-7-7-------9-8-9-7-|
|0-0-0-------8-0-0-0-------7-0-0-0---------0-0-0---------|

Verse
|--------------------|
|--------------------|
|--------------------|
|9----------9--------|
|7--10-9----7--10-9-|
|---8--7-------8--7-|


So yeah thats it...

GO FORTH AND DIE!!!!

ĂŽnscrie-te la newsletter


Like us on Facebook