Go Forth And Die Tab - Dethklok






This is the first tab I've ever actually submitted, learned it by ear after a good five 
ALL HAIL DETHKLOK!!!

Standard E tuning, bridge pick-up if you prefer.

Intro: Repeat four times.

--------------------------------------|
--------------------------------------|
--------------------------------------|
--------------------------------------|
--------------------------------------|
-8-7-8-4--8-7-8-3--8-7-8-7--10-9-10-8-|

Repeat this twice

--------------------------------------|
--------------------------------------|
-8-10-7-------------------------------|
-x-x--x-------------------------------|
-6-8--5-------------------------------|
--------------------------------------|

Repeat this four times.

-------------------------------------------------------|
-------------------------------------------------------|
-------------------------------------------------------|
-------------------------------------------------------|
-11-10-11-10---11-10-11-10---11-10-11-14---15-14-15-11-|
-------------------------------------------------------|

And finally repeat this four times.

--------------------------------------|
--------------------------------------|
-8-10-7-------------------------------|
-x-x--x-------------------------------|
-6-8--5-------------------------------|
--------------------------------------|


One of the more simple songs of Dethklok, but still dark. Blacker than the blackest 
times infinity!

~ Simon Myers (Yes, I made the tab. I did not WRITE the tab, that's all Brendon Small's 
that little devil. I just posted it up here so that the public can view it. Keep it metal)


Questions? Comments? Requests?

E-mail me at Vermilionamour@aol.com
or check out my myspace at www.myspace.com/In_Black_Leather/

ĂŽnscrie-te la newsletter


Like us on Facebook