Go Into The Water (ver2) Tab - Dethklok






-------------------------------------------------------------------------------
     Go Into the Water - Dethklok
-------------------------------------------------------------------------------
Tabbed by: Ian Cook
Email: disasterpiece1491@hotmail.com

Go to bottom of page to find Song Order.

Tuning: C F Bb Eb G C

Verse 1
C.|---------------------------------------------------------------------------|
G.|---------------------------------------------------------------------------|
Eb|---------------------------------------------------------------------------|
Bb|-2--------2--------2--------2--------2--------2--------2--------2----------|
F.|-2--------2--------2--------2--------2--------2--------2--------2----------|
C.|-0--0-0-0-0--0-0-0-0--0-0-0-0--0-0-0-3--3-3-3-3--3-3-3-3--3-3-3-3--3-3-3---|

C.|--------------------------------------------------|--------------|--------------------|
G.|--------------------------------------------------|--------------|--------------------|
Eb|--------------------------------------------------|--------------|--------------------|
Bb|-2--------2--------2--------2--------2--------2---|--------------|--3--4--5--6--------|
F.|-4--------4--------3--------3--------2--------2---|--7--8--9--10-|--3--4--5--6--------|
C.|-5--5-5-5-5--5-5-5-5--5-5-5-5--5-5-5-4--4-4-4-4---|--------------|--5--6--7--8--------|
                                                     1st time        2nd time                 
                                                     through song     through 
Verse 2 C.|---------------------------------------------------------------------------|
G.|---------------------------------------------------------------------------|
Eb|---------------------------------------------------------------------------|
Bb|-5--------5--------5--------5--------7--------7--------7--------7----------| 
F.|-7--------7--------7--------7--------7--------7--------7--------7----------|
C.|-8--8-8-8-8--8-8-8-7--7-7-7-7--7-7-7-9--9-9-9-9--9-9-9-9--9-9-9-9--9-9-9---|
    
  ^Play this section 2 times^

Verse 3
C.|---------------------------------------------------------------------------|
G.|---------------------------------------------------------------------------|
Eb|---------------------------------------------------------------------------|
Bb|--8------------8-----------7--------7--------------------------------------|
F.|--8------------8-----------8--------8---------7--------8--------7--------8-|
C.|-10--10-10-10-10--10-10-10-8--8-8-8-8--8-8-8--5--5-5-5-5--5-5-5-5--5-5-5-5-|

  ^Then this 2 times, then lead into chorus^

Chorus
C.|-------------------------------------------------------|--------------------15-15^-15--17^--17--17--15-----|
G.|-------------------------------------------------------|--18--17-18--17-18---------------------------------|
Eb|-------------------------------------------------------|---------------------------------------------------|
Bb|--7---7-7---7-7---5----7----5-----------------------5--|---------------------------------------------------|
F.|--5---4-5---4-5---7----8----7-----8-----3-----3-----3--|---------------------------------------------------|
C.|----------------------------------6-----1-----1--------|---------------------------------------------------|

Order of Song:

Verse 1 
Verse 2
Verse 3
Chorus
Verse 1 with 2nd ending
Verse 3
Chorus

ĂŽnscrie-te la newsletter


Like us on Facebook