Go Into The Water Tab - Dethklok






Here is the song up until the part where it cuts off and Nathan yells "hey what the hell is goin on?!"

Intro(As they are about to emerge from the water)

e|--------||--------||--------||--------|
B|--------||--------||--------||--------|
G|--------||--------||--------||--------|
D|--------||--------||--------||--------|
A|--------||0-------||0-------||0-------|
E|0000000-||----000-||----000-||---000--|

e|--------||--------||--------||--------|
B|--------||--------||--------||--------|
G|--------||--------||--------||--------|
D|--------||--------||--------||--------|
A|3-------||3-------||4-------||4-------|
E|---000--||----000-||----000-||---000--|

e|--------||--------||--------||--------|
B|--------||--------||--------||--------|
G|--------||--------||--------||--------|
D|--------||--------||--------||--------|
A|0-------||3-------||0-------||3-------|
E|---000--||----000-||----000-||---000--|

e|--------||--------||--------||--------|
B|--------||--------||--------||--------|
G|--------||--------||--------||--------|
D|--------||--------||--------||--------|
A|0-------||0-------||7-------||7-------|
E|---000--||----000-||0---000-||0--000--|

e|--------||--------||--------||--------|
B|--------||--------||--------||--------|
G|--------||--------||--------||--------|
D|--------||--------||--------||--------|  x 2
A|0-------||4-------||0-------||4-------|
E|---000--||----000-||----000-||---000--|

Verse Riff

e|--------||--------||--------||--------|
B|--------||--------||--------||--------|
G|--------||--------||--------||--------|
D|--------||--------||--------||--------| x 2
A|1--01--0||1-3-4-3-||--------||4-------|
E|--------||--------||2---1---||----4---|

That riff continues, then the second guitar comes in playing this:
(add wah-wah)

e|--------||--------||--------||--------|
B|--------||--------||--------||--------|
G|3--23--2||3-5-6-5-||--------||--------|
D|--------||--------||4---3---||3---1---| x 2
A|--------||--------||--------||--------|
E|--------||--------||--------||--------|


Then theres this part in between the 2 verses where Nathan says
"I call out to the beasts of the sea to come forth and join us..."
Play this:

e|--------||--------||--------||--------|
B|--------||--------||--------||--------|
G|--------||--------||--------||--------|
D|--------||--------||--------||--------|
A|3-------||3-------||3-------||3-------|
E|---000--||---000--||----000-||---000--|

e|--------||--------||--------||--------|
B|--------||--------||--------||--------|
G|--------||--------||--------||--------|
D|--------||--------||--------||--------|
A|7-------||7-------||7-------||7-------|
E|---000--||---000--||----000-||---000--|

e|--------||--------||--------||--------|
B|--------||--------||--------||--------|
G|--------||--------||--------||--------|
D|--------||--------||--------||--------|
A|9-------||9-------||8-------||8-------|
E|---000--||---000--||----000-||---000--|

e|--------||--------||--------||--------|
B|--------||--------||--------||--------|
G|--------||--------||--------||--------|
D|--------||--------||--------||--------|
A|5-------||5-------||1-2-3-4-||5-------|
E|---000--||---000--||--------||---000--|


e|--------||--------||--------||--------|
B|--------||--------||--------||--------|
G|--------||--------||--------||--------|
D|--------||--------||--------||--------|
A|0-------||4-------||0-------||4-------|
E|---000--||---000--||---000--||---000--|


e|--------||--------||--------||--------|
B|--------||--------||--------||--------|
G|--------||--------||--------||--------|
D|--------||--------||--------||--------|
A|0-------||4-------||0-------||4-------|
E|---000--||---000--||---000--||---000--|


Second verse riff

e|--------||--------||--------||--------------|
B|--------||--------||--------||--------------|
G|--------||--------||--------||--------------|
D|--------||--------||--------||--------| x 4-|
A|1--01--0||1-3-4-3-||--------||4-------------|
E|--------||--------||2---1---||----4---------|

"Hey what the hell's goin on?"

That's basically it. Sorry that i don't have lyrics.  The tab can also be used for bass 
there really isn't any noticable bass in the song.

ĂŽnscrie-te la newsletter


Like us on Facebook