I Tamper With The Evidence At The Murder Site Of Odin Intro Tab - Dethklok






"I Tamper With the Evidence at the Murder Site of Odin Intro" by Dethklok
C Standard (C F Bb Eb G C)
Tabbed by Osiris12

[Lead]
|-------------------------------------------------------|
|-------------------------------------------------------|
|-8--8-7-8---10--10--9-10--12--12-11-12---14--14--13-14-|
|-------------------------------------------------------|
|-------------------------------------------------------|
|-------------------------------------------------------| x2

|-12--12-11-12---14--14--13-14--15--15-14-15---17--17-16-17b-|
|------------------------------------------------------------|
|------------------------------------------------------------|
|------------------------------------------------------------|
|------------------------------------------------------------|
|------------------------------------------------------------| x2

[Rhythm]
 x2                            x2
|-----------------------------|-----------------------------|
|-----------------------------|-----------------------------|
|-----------------------------|-----------------------------|
|-7-x-7-x-7-x-x-7-x-7-x-7-x-x-|-3-x-3-x-3-x-x-3-x-3-x-3-x-x-|
|-7-x-7-x-7-x-x-7-x-7-x-7-x-x-|-3-x-3-x-3-x-x-3-x-3-x-3-x-x-|
|-5-x-5-x-5-x-x-5-x-5-x-5-x-x-|-1-x-1-x-1-x-x-1-x-1-x-1-x-x-| x2

ĂŽnscrie-te la newsletter


Like us on Facebook