Metalocalypse Tab - Dethklok






Dethklok - Opening theme

Harmonic = 
Slide Up = /

Listen to the song for exact timing
I tried to indicate the timing roughly with different numbers of dashes
Tune Down to C

       P.M.-------|     P.M.-------------|
|------------------------------------------------|
|------------------------------------------------|
|--2/3-------------------------------------------|
|--2/3-------------------------------------------|
|--5-5-------------------------------------------|
|------0--0-0--0--0----0--0-0-0--0--0-0----|

       P.M.-------|     P.M.-------------|
|------------------------------------------------|
|------------------------------------------------|
|--4/5-------------------------------------------|
|--4/5-------------------------------------------|
|--7-7-------------------------------------------|
|------0--0-0--0--0----0--0-0-0--0--0-0----|

       P.M.-------|
|-----------------------|--------------------|
|-----------------------|--------------------|
|--6/7------------------|--------------------|
|--6/7------------------|-9----9----9----9---|
|--9-9------------------|-7-9--7-9--7-9--7-9-|
|------0--0-0--0--0--|---7----7----7----7-|

|-----------------------------------------------------|
|.---------------------------------------------------.|     Don't slide
|-----------------------------------------------------| X3  the 7 note
|-----------------------------------------------------|     2nd & 3rd time
|.-/7-7-7-9-7-7-10-7-7-9-7-7-6-6-6-8-6-6-9-6-6-8-6-6-.|
|-----------------------------------------------------|

              Riff 1
|------------|----------------------------|
|------------|.--------------------------.|
|------------|----------------------------|
|-9----11----|----------------------------| X4 
|-7-9--9--11-|.-0-0-0-3-0-0-5-0-0-3-0-0--.|
|---7-----9--|----------------------------|
             |                            |
             |---------------------------------------|
     |------------------------------------12-|
     |----------------------------12-10-9----| play on second
     |--------------------12-10-9------------| play of riff 1
     |----------13-12-10---------------------| (do not repeat
     |-13-12-10------------------------------| this riff)
         ^^
 dip whammy pedal here

             |----------------------------------------|
     |-12-15----------------------------15-12-| play on fourth play
     |-------14----------------------14-------| of riff 1 (do not
     |----------14----------------14----------| repeat this riff)
     |-------------14----------14-------------|
     |----------------12-17-12----------------|
                          ^^
                  dip whammy pedal here

|--------------------------------------------------|
|--------------------------------------------------|
|--------------------------------------------------|
|--------------------------------------------------|
|-2-2-2-4-2-2-5-2-2-4-2-2-3-3-3-5-3-3-6-3-3-5-3-3--|
|--------------------------------------------------|
   |                     |
  |                     |   
                          |---------------------|                        
          |-0-----2-----3-----0-|   
          |---------------------|  
          |---------------------| 
          |---------------------|   
          |---------------------|  
            ^     ^     ^     ^
            dip whammy pedal here

|-------------------------------------------------------------------------|
|-------------------------------------------------------------------------|
|-------------------------------------------------------------------------|
|-------------------------------------------------------------------------|
|-4-4-4-6-4-4-7-4-4-6-4-4-5-5-5-7-5-5-8-5-5-7-5-5-6-6-6-8-6-6-9-6-6-8-6-6-|
|-------------------------------------------------------------------------|
  |  |
   |  |
                          |-------------------------------|
  |14--14--14-14--14--14-14-14--14|
  |-------------------------------|
                          |-------------------------------|
                          |-------------------------------|
                          |-------------------------------|


|------------------------------------------|
|------------------------------------------|
|------------------------------------------|
|-9----9----9----9----9----9----9---9---2--|
|-7-9--7-9--7-9--7-9--7-9--7-9--7-9-7---2--|
|---7----7----7----7----7----7----7-----|
end of song.



Tab by: Diablomastabarb
        diablo_masta_barbarian@hotmail.com

Watch Metalocalypse on Adult Swim!!  m/
We will make everything metal, blacker than the blackest black..  X infinite.


ĂŽnscrie-te la newsletter


Like us on Facebook