Murmaider Ii The Water God Tab - Dethklok






Dethklok - Murmaider II: The Water God
From the Dethalbum II - 2009

Drop C Tuning - CGCFAd

All octave power chords and triplets. Super easy and fun to play.


0:04-0:12 - Intro Riff
d|-----------------------------------|
A|-----------------------------------|
F|-----------------------------------|
C|-----------------------------------|
G|-----------------------------------|
C|--000-000-000-000-000-000-000-000--|


0:11-1:13 - Verse Riff
d|-----------------------------------------------------------|
A|-----------------------------------------------------------|
F|--5---------5-----------------5---------5---------5/75----|
C|-----------------------------------------------------------|
G|--3---------3-----------------3---------3---------3/53----|
C|----000-000---000-000-000-000---000-000---000-000-------0--|


0:48-1:13 - Verse Lead
d|-----------------(16)--|
A|-----------------------|
F|--10-12-13-15-13-------|
C|-----------------------|
G|-----------------------|
C|-----------------------|


1:13-1:14 - Chorus Intro 
d|--------------|
A|--------------|
F|--7/1095/7--|
C|--------------|
G|--5/8-73/5--|
C|--------------|


1:15-1:39 - Chorus Riff (1)
d|------------------------------------------------------------|
A|------------------------------------------------------------|
F|-------------------------------7/1095--10--10--9--7--5/7--|
C|------------------------------------------------------------|
G|-------------------------------5/8-73--8---8---7--5--3/5--|
C|--000-000-000-000-000-000-000-------------------------------|


1:40-1:53 - Bridge that I'm not good enough to figure out


1:51-1:58 - Bridge Fill
d|--------------------------------------|
A|--15/1713--13/1511--11/1310--8--9--|
F|--------------------------------------|
C|--12/1410--10/12-8--8-/10-7--5--6--|
G|--------------------------------------|
C|--------------------------------------|


2:00-2:35 Verse Riff


2:23-2:35 Verse Lead


2:35-2:55 Chorus Riff 1


2:55-3:04 - Chorus Riff (2)
d|-----------------------------------------------------------------------------------|
A|-----------------------------------------------------------------------------------|
F|-------------------------------7/1095--10--10--9--7--5/7--15--15--14--12--10--7--|
C|-----------------------------------------------------------------------------------|
G|-------------------------------5/8-73--8---8---7--5--3/5--13--13--12--10--8---5--|
C|--000-000-000-000-000-000-000------------------------------------------------------|


3:04-3:17 - Chorus Riff (3)
d|------------------------------------------------------|
A|------------------------------------------------------|
F|-------------------------------15--15--14--12--10--7--|
C|------------------------------------------------------|
G|-------------------------------13--13--12--10--8---5--|
C|--000-000-000-000-000-000-000-------------------------|


3:17-3:26 - Chorus Riff (4)
d|-----------------------------------------------------------------------|
A|-----------------------------------------------------------------------|
F|-------------------------------15--15--14--12--10--18--18--17--15--13--|
C|-----------------------------------------------------------------------|
G|-------------------------------13--13--12--10--8---16--16--15--13--11--|
C|--000-000-000-000-000-000-000------------------------------------------|


3:26-4:10 - Chorus Riff (5)
d|---------------------------------------------------------------------------------------------|
A|---------------------------------------------------------------------------------------------|
F|--10-x-x-10-x-10-10-x-x-10-10-x-x-10-x-10-10-x-x-10--15--15--14--12--10--18--18--17--15--13--|
C|--10-x-x-10-x-10-10-x-x-10-10-x-x-10-x-10-10-x-x-10------------------------------------------|
G|--8--x-x-8--x-8--8--x-x-8--8--x-x-8--x-8--8--x-x-8---13--13--12--10--8---16--16--15--13--11--|
C|---------------------------------------------------------------------------------------------|


4:10-4:24 Intro Riff


4:24-5:30 Outro Riff
d|------------------------------|
A|------------------------------|
F|-----------------------6-9-9--|
C|--0-2-3-7-6--6-5--5-3--6-9-9--|
G|--0-2-3-7-6--6-5--5-3--4-7-7--|
C|--0-2-3-7-6--6-5--5-3---------|


4:49-5:30 Outro Lead
d|-------------------------|
A|---------10-9-9-8-6------|
F|--7-9-10------------6-9--|
C|-------------------------|
G|-------------------------|
C|-------------------------|





ĂŽnscrie-te la newsletter


Like us on Facebook