Murmaider Tab - Dethklok






Song: Murmaider
By: Dethklok
Album: The DethAlbum

NOTE: This is the song as it appears on the DeathAlbum, not on the show, minus the solo, 
this is basically all you need to figure out the whole song.

Tuning: C F A# D# G C

Guitars: Lead, Skwisgar Rhythm, Toki
Palm mute: ...
Pinch Harmonic: [3]
Slide:3/4

Intro
Both Guitars
Tremlo Picking

 x2 both
|-------------------------------------------------------|
|-------------------------------------------------------|
|-------------------------------------------------------|
|-------------------------------------------------------|
|-------------------------------------------------------|
|000-000-000-000-000-000-000-000------------------------|
|... ... ... ... ... ... ... ...
|
|-------------------------------------------------------|
|-------------------------------------------------------|
|-------------------------------------------------------|
|-------------------------------------------------------|
|-------------------------------------------------------|
|000-000-000-000-000-000-000-000------------------------|
 ... ... ... ... ... ... ... ...

Riff solo, starts when Vocals begin

(Let it ring!!!)

|-------------------------------------------------------|
|-------------------------------------------------------|
|-------------------------------------------------------|
|2~~~~4~~5~~5/9~~~~~~~~~8~~~~~7~~~~~~~~5~~~~~~----------|
|---------------------------------------------5/8~~~~~7-|
|-------------------------------------------------------|

Bridge: Both Guitars
x4
|------------------------------|
|------------------------------|
|------------------------------|
|-5--5---------5--5---------7--|
|-2--3---------2--3---------5--|
|------000-000------000-000----|

Chorus
x4
|------------------------------------|
|------------------------------------|
|------------------------------------|
|2--------2--------2--------2--------|
|2--------2--------2--------2--------|
|0--2--3--0--2--3--0--2--3--0--2--3--|
|
|
|
|-------------------------------------|
|-------------------------------------|
|-------------------------------------|
|-------------------------------------|
|0--2--3--0--2--3--0--[3]~~~0--[3]~~~-|

The rest is pretty much easy to figure out.

ĂŽnscrie-te la newsletter


Like us on Facebook