Skwisgaar Air Guitar Intro Tab - Dethklok






This is my first tab.
It is from the episode when Skwisgaar
jumps out of the airplane and records a solo.
Tuning C Standard C-F-Bb-Eb-G-C
Key /Slide Up
    Slide Down
    h hammer on
    p pull off

|--7p3-------3h7p3--------7/12p8---------8h12p8-------------| continue
|------5---5-------5---5---------10---10--------10---10-----|
|--------4-----------4--------------9--------------9--------|
|-----------------------------------------------------------|    V
|-----------------------------------------------------------|
|-----------------------------------------------------------|

-1210p7-------7h10p7-------10/15p12----------12h15p12----------15--|
---------8---8--------8---8----------13----13----------13----13------|
-----------7------------7---------------12----------------12---------|
---------------------------------------------------------------------|
---------------------------------------------------------------------|
---------------------------------------------------------------------|

-12p9---------9h12p9---------12/17p14----------14h17p14----------17-|
------10---10--------10---10----------15----15----------15----15-----|
---------9--------------9-----------------14-----------------14------|
---------------------------------------------------------------------|
---------------------------------------------------------------------|
---------------------------------------------------------------------|

-14p11----------11h14p11----------14/19p16----------16h19----------16h19~~|
-------12----12----------12----12----------17----17-------17----17--------|
----------11----------------11----------------16-------------16-----------|
--------------------------------------------------------------------------|
--------------------------------------------------------------------------|
--------------------------------------------------------------------------|

ĂŽnscrie-te la newsletter


Like us on Facebook