The Gears Tab - Dethklok






Notice: the verse, intro, and bridge of this song were originally tabbed by by Mr_CiNiC, 
I modified the intro, so all I really tabbed is the chorus and what little bit of the 
I got.
Tuning: C Standard (C F Bb Eb G C)

Opening Riff (play this four times)
|------------------------------------------------------|
|------------------------------------------------------|
|------------------------------------------------------|
|-----------------------5-------------------------4----|
|---------7-6-----------3-----------3-2-----------2----|
|00000000------55555555----33333333------22222222------|
 ........      ........    ........      ........

Verse (again, four times)
|---------------------------------------------------------|
|---------------------------------------------------------|
|---------------------------------------------------------|
|------5-4-----------7-5-----------5-4--------------------|
|----------7-6-----------9-7-----------7-6----------3-2---|
|0-0------------0-0-----------0-0-----------000-000--0----|
 . .            . .           . .           ... ...  .

Chorus (you guessed it - play it four times)
|---------------------------------|
|---------------------------------|
|---------------------------------|
|---------------------------------|
|-------------6-------------------|
|-0-0-0-0-5-8---8-0-0-0-0-3-5-7-5-|
  . . . .         . . . .

Bridge (tremolo pick all)ii
|---------------------------------------------------------------|
|---------------------------------------------------------------|
|-------------------------------------------5-----------5-------|
|-------------5-----------5-----------5-7-9---5---5-7-9---5-----|
|-------5-7-8---5---5-7-8---5---5-7-8-----------8---------------|
|5-7-8------------8-----------3-----------------------------8-7-|


SOLO! It has five parts, but i could only get the second part and fourth parts. However, 
what I believe to be the scale Brendon uses in this song, that may help you.

|-----------------------------|
|-----------------------------|
|---------------------------5-|
|-------------------3-5-7-9---|
|----------2-3-5-7------------|
|-0-2-3-5---------------------|

And I was able to get the second and fourth part of the solo, they're like some sort of 
bridge.

|-------------------------------------13-12---------------------------9-8-|
|-12-10-10-10-13-10-10-10-12-10-10-10-------10-8-8-8-9-8-8-8-10-8-8-8-----|
|-------------------------------------------------------------------------|
|-------------------------------------------------------------------------|
|-------------------------------------------------------------------------|
|-------------------------------------------------------------------------|

-------------------------8-6-|
-8-6-6-6-9-6-6-6-8-6-6-6-----|
-----------------------------|
-----------------------------|
-----------------------------|
-----------------------------|

Intro
Verse
Chorus
Intro
Verse
Chorus
Bridge
Unknown solo bridge (1:59)
Solo (2:09)
Known solo bridge (2:14)
Another solo (2:19)
Known Solo bridge (2:24 and a half)
Verse
Bridge x 4

So, that's it. Enjoy!

ĂŽnscrie-te la newsletter


Like us on Facebook