Thunderhorse (ver4) Tab - Dethklok






                                 Thunderhorse                                   


                                                                        Dethklok

Duration Legend
---------------
W - whole
H - half
Q - quarter
E - 8th
S - 16th
T - 32nd
X - 64th
. - note dotted
|-n-|  - n-tuplets


Tablature Legend
----------------
L - tied note
x - dead note
g - grace note
(n) - ghost note
> - accentuded note
NH - natural harmonic
AH - artificial harmonic
TH - tapped harmonic
SH - semi harmonic
PH - pitch harmonic
h - hammer on
p - pull off
b - bend
br - bendRelease
pb - preBend
pbr - preBendRelease
brb - bendReleaseBend
n/ - tremolo bar dip
n - tremolo bar dive
-/n - tremolo bar Release up
/n - tremolo bar inverted dip
/n - tremolo bar return
-n - tremolo bar Release down
S - shift slide
s - legato slide
/ -  slide into from below or out of upwards
 -  slide into from above or out of downwards
~ - vibrato
W - wide vibrato
tr - trill
TP - tremolo picking
T - tapping
S - slap
P - pop
< - fade in
^ - brush up
v - brush down



Guitar 1


      W                   W                    Q.       E   Q      Q      
C ||-------------------|-------------------|-----------------------------|
G ||-------------------|-------------------|--13~------12--13~----15b----|
D#||-------------------|-------------------|-----------------------------|
A#||-------------------|-------------------|-----------------------------|
F ||-------------------|-------------------|-----------------------------|
C ||-------------------|-------------------|-----------------------------|


   Q.       E   Q      Q         Q.       E   Q      Q      
-----------------------------|----------------------19b----|
--15~------13--15~----17b----|--17~------15--17~-----------|
-----------------------------|-----------------------------|
-----------------------------|-----------------------------|
-----------------------------|-----------------------------|
-----------------------------|-----------------------------|


   Q        Q      Q      Q         W                    W                 
--19pb~----19~----17~----19~----|--20~----------------|-------------------|
--------------------------------|---------------------|-------------------|
--------------------------------|---------------------|-------------------|
--------------------------------|---------------------|-------------------|
--------------------------------|---------------------|-------------------|
--------------------------------|---------------------|-------------------|


   T T  T T  T T  T T  T  T  T  T  T  T  T  T  T  T  T  T  T  T  T  T  T  T  T  
--12-8--------------8-15-12----------------12-17-13----------------13-19-16-----
-------10--------10---------13----------13----------15----------15----------17--
----------9----9---------------12----12----------------14----14----------------1
------------10--------------------14----------------------15--------------------
--------------------------------------------------------------------------------
--------------------------------------------------------------------------------


   W                    W                   W                 
--20~----------------|-------------------|-------------------|
---------------------|-------------------|-------------------|
---------------------|-------------------|-------------------|
---------------------|-------------------|-------------------|
---------------------|-------------------|-------------------|
---------------------|-------------------|-------------------|


  W                 
-------------------|
-------------------|
-------------------|
-------------------|
-------------------|
-------------------|


   T T T T T T T T  T T T T  T T T T  T T T  T T T T T  T T T T  T T T T  
--10-0-0-0-8-0-0-0-10-0-0-0-12-0-0-0-10-0-0-12-0-0-0-0-13-0-0-0-15-0-0-0-|
-------------------------------------------------------------------------|
-------------------------------------------------------------------------|
-------------------------------------------------------------------------|
-------------------------------------------------------------------------|
-------------------------------------------------------------------------|


   T T T T  T T T T  T T T T  T T T T  T T T T  T T T T  T T T T  T T T T  
--17-0-0-0-15-0-0-0-17-0-0-0-19-0-0-0-17-0-0-0-19-0-0-0-20-0-0-0-22-0-0-0-|
--------------------------------------------------------------------------|
--------------------------------------------------------------------------|
--------------------------------------------------------------------------|
--------------------------------------------------------------------------|
--------------------------------------------------------------------------|


   W                                                          
--22b----------------|-------|-------|-------|-------|-------|
---------------------|-------|-------|-------|-------|-------|
---------------------|-------|-------|-------|-------|-------|
---------------------|-------|-------|-------|-------|-------|
---------------------|-------|-------|-------|-------|-------|
---------------------|-------|-------|-------|-------|-------|


  S S S S S S S S S S S S S S S S    S S S S S S S S S S S S S S S S          
----------------------------------|----------------------------------|-------|
----------------------------------|----------------------------------|-------|
----------------------------------|----------------------------------|-------|
----------------3-----3-5-3-3-5-7-|----------------3-----3-5-3-3-5-7-|-------|
--3-3-5-7-5-5-7---7-7-------------|--3-3-5-7-5-5-7---7-7-------------|-------|
----------------------------------|----------------------------------|-------|


-------|-------|-------|-------|-------|-------|-------|-------|-------|-------|
-------|-------|-------|-------|-------|-------|-------|-------|-------|-------|
-------|-------|-------|-------|-------|-------|-------|-------|-------|-------|
-------|-------|-------|-------|-------|-------|-------|-------|-------|-------|
-------|-------|-------|-------|-------|-------|-------|-------|-------|-------|
-------|-------|-------|-------|-------|-------|-------|-------|-------|-------|


                  H         E   E   E    E           
-------|-------|----------------------------|-------|
-------|-------|-----------17--15--17b--17--|-------|
-------|-------|----------------------------|-------|
-------|-------|----------------------------|-------|
-------|-------|----------------------------|-------|
-------|-------|----------------------------|-------|


  H         E   E   E    E      S  S  S  S  E    S  S  S  S  S  S  E  E   
----------------------------|--------------------------------------------|
-----------17--15--17b--17--|--13-12-13-15-15b--13-12-13-12--------------|
----------------------------|-------------------------------14-13-14-----|
----------------------------|--------------------------------------------|
----------------------------|--------------------------------------------|
----------------------------|--------------------------------------------|


   S  S  S  S  E    E   Q.     E      S  S  S  S  E    S  S  S  S  S  S  E  E   
-------------------17--16---------|--------------------------------------------|
--13-12-13-15-15b-----------------|--13-12-13-15-15b--13-12-13-12--------------|
----------------------------------|-------------------------------14-13-14-----|
----------------------------------|--------------------------------------------|
----------------------------------|--------------------------------------------|
----------------------------------|--------------------------------------------|


   S  S  S  S  S  S  S  S  S  S  S  S  S  S  S  S  
--------------------------------------------------|
--17-17-15-15-13-13-------------------------------|
--------------------16-16-14-14-13-13-------------|
--------------------------------------15-15-14-14-|
--------------------------------------------------|
--------------------------------------------------|


   T T  T T  T T  T T  T  T  T  T  T  T  T  T  T  T  T  T  T  T  T  T  
--12-8--------------8-15-12----------------12-17-13----------------13-|
-------10--------10---------13----------13----------15----------15----|
----------9----9---------------12----12----------------14----14-------|
------------10--------------------14----------------------15----------|
----------------------------------------------------------------------|
----------------------------------------------------------------------|


   T T  T T  T T  T T  T  T  T  T  T  T  T  T  T  T  T  T  T  T  T  T  
--12-8--------------8-15-12----------------12-17-13----------------13-|
-------10--------10---------13----------13----------15----------15----|
----------9----9---------------12----12----------------14----14-------|
------------10--------------------14----------------------15----------|
----------------------------------------------------------------------|
----------------------------------------------------------------------|


   T T  T T  T T  T T  T  T  T  T  T  T  T  T  T  T  T  T  T  T  T  T  
--12-8--------------8-15-12----------------12-17-13----------------13-|
-------10--------10---------13----------13----------15----------15----|
----------9----9---------------12----12----------------14----14-------|
------------10--------------------14----------------------15----------|
----------------------------------------------------------------------|
----------------------------------------------------------------------|


   T T  T T  T T  T T  T  T  T  T  T  T  T  T  T  T  T  T  T  T  T  T  
--12-8--------------8-15-12----------------12-17-13----------------13-|
-------10--------10---------13----------13----------15----------15----|
----------9----9---------------12----12----------------14----14-------|
------------10--------------------14----------------------15----------|
----------------------------------------------------------------------|
----------------------------------------------------------------------|


   W                                           
--17~----------------|----|----|----|----|----|
---------------------|----|----|----|----|----|
---------------------|----|----|----|----|----|
---------------------|----|----|----|----|----|
---------------------|----|----|----|----|----|
---------------------|----|----|----|----|----|


   Q     S  S  S  S Q     S  S  S  S     Q     S  S  S  S   Q     Q     
-------------------------------------|---------------------------------|
--10----10-12-13-12-L----12-13-15-13-|---L----13-15-17-17b--L----17----|
-------------------------------------|---------------------------------|
-------------------------------------|---------------------------------|
-------------------------------------|---------------------------------|
-------------------------------------|---------------------------------|


   Q     S  S  S  S Q     S  S  S  S     Q     S  S  S  S   Q     Q     
-------------------------------------|---------------------------------|
--10----10-12-13-12-L----12-13-15-13-|---L----13-15-17-17b--L----17----|
-------------------------------------|---------------------------------|
-------------------------------------|---------------------------------|
-------------------------------------|---------------------------------|
-------------------------------------|---------------------------------|


   Q     S  S  S  S Q     S  S  S  S     Q     S  S  S  S   Q     Q     
-------------------------------------|---------------------------------|
--10----10-12-13-12-L----12-13-15-13-|---L----13-15-17-17b--L----17----|
-------------------------------------|---------------------------------|
-------------------------------------|---------------------------------|
-------------------------------------|---------------------------------|
-------------------------------------|---------------------------------|


   Q     S  S  S  S Q     S  S  S  S     Q     S  S  S  S   Q     Q     
-------------------------------------|---------------------------------|
--10----10-12-13-12-L----12-13-15-13-|---L----13-15-17-17b--L----17----|
-------------------------------------|---------------------------------|
-------------------------------------|---------------------------------|
-------------------------------------|---------------------------------|
-------------------------------------|---------------------------------|


   Q     S  S  S  S Q     S  S  S  S     Q     S  S  S  S   Q     Q     
-------------------------------------|---------------------------------|
--10----10-12-13-12-L----12-13-15-13-|---L----13-15-17-17b--L----17----|
-------------------------------------|---------------------------------|
-------------------------------------|---------------------------------|
-------------------------------------|---------------------------------|
-------------------------------------|---------------------------------|


   Q     S  S  S  S Q     S  S  S  S     Q     S  S  S  S   Q     Q     
-------------------------------------|---------------------------------|
--10----10-12-13-12-L----12-13-15-13-|---L----13-15-17-17b--L----17----|
-------------------------------------|---------------------------------|
-------------------------------------|---------------------------------|
-------------------------------------|---------------------------------|
-------------------------------------|---------------------------------|


   Q     S  S  S  S Q     S  S  S  S     Q     S  S  S  S   Q     Q      
-------------------------------------|---------------------------------||
--10----10-12-13-12-L----12-13-15-13-|---L----13-15-17-17b--L----17----||
-------------------------------------|---------------------------------||
-------------------------------------|---------------------------------||
-------------------------------------|---------------------------------||
-------------------------------------|---------------------------------||




Duration Legend
---------------
W - whole
H - half
Q - quarter
E - 8th
S - 16th
T - 32nd
X - 64th
. - note dotted
|-n-|  - n-tuplets


Tablature Legend
----------------
L - tied note
x - dead note
g - grace note
(n) - ghost note
> - accentuded note
NH - natural harmonic
AH - artificial harmonic
TH - tapped harmonic
SH - semi harmonic
PH - pitch harmonic
h - hammer on
p - pull off
b - bend
br - bendRelease
pb - preBend
pbr - preBendRelease
brb - bendReleaseBend
n/ - tremolo bar dip
n - tremolo bar dive
-/n - tremolo bar Release up
/n - tremolo bar inverted dip
/n - tremolo bar return
-n - tremolo bar Release down
S - shift slide
s - legato slide
/ -  slide into from below or out of upwards
 -  slide into from above or out of downwards
~ - vibrato
W - wide vibrato
tr - trill
TP - tremolo picking
T - tapping
S - slap
P - pop
< - fade in
^ - brush up
v - brush down

ĂŽnscrie-te la newsletter


Like us on Facebook