Little Arithmetics Bass Tab - dEUS






Little Arithmetics

tab by Nadja Weber & Avi

-----
Bass 
-----
   ________
  / Intro       
G|----------|---------|---------|-------------|
D|----------|---------|---------|-------------|
A|-12/0-0-0-|-0h3-3-3-|-3/5-5-5-|-------------|
E|----------|---------|---------|-0h3-3-3-3-3-|
                   all verses               /
       ____________________________________/


Chorus - 
G|------|---------|------|------|
D|------|---------|------|------|
A|-3...-|-2-------|------|------|
E|------|---3-3-3-|-5...-|-1...-|

Outro - 
the only thing I could get was this repeating riff ...
G|----------------|
D|-12p10----------|
A|-------12-12/14-|
E|----------------|

ĂŽnscrie-te la newsletter


Like us on Facebook