Suds And Soda Tab - dEUS






#----------------------------------PLEASE NOTE---------------------------------#
#This file is the author's own work and represents their interpretation of the #
#song. You may only use this file for private study, scholarship, or research. #
#------------------------------------------------------------------------------#
#

Date: Wed, 31 Dec 1997 16:51:35 +0000 (GMT)
From: stefan11@worldaccess.nl
Subject: CRD: 'Suds & Soda' - dEUS

Suds & Soda - dEUS  (album: Worst Case Scenario)

Here's an attempt to write a tab of this rather complex song.
corrections/additions are always very welcome.
stefan nijenhuis, stefan11@worldaccess.nl

The lyrics were taken from:
http://www.stack.nl/~arthur/deus.html  ( a very great dEUS homepage!!)

Violin riff (top 3 strings):

E-|---12---12---12---12--|
B-|----------------------|
G-|-9----9----9----9-----|

Guitar riff:
                 2x                  2x
E-|-----------------|-------------------|-----|
B-|-----------------|-------------------|-----|
G-|---4-------4-----|---6-------6-------|-----|
D-|-------4-------4-|-------6-------6---|-----|
A-|-5---5---5---5---|-7---7---7---7---7-|-----|
E-|-----------------|-------------------|-----|


then: riff2 (slide to an E)
         E            (muted)
--------------------|--x-x-x-x-x-x-x-x--|----|
---------5--5--5--5-|--x-x-x-x-x-x-x-x--|----|
---------5--5--5--5-|--x-x-x-x-x-x-x-x--|----|
---------5--5--5--5-|--x-x-x-x-x-x-x-x--|----|
---5-/-7-7--7--7--7-|--x-x-x-x-x-x-x-x--|----|
---5-/-7------------|--x-x-x-x-x-x-x-x--|----|


Friday (shouted 159x throughout the entire song)

     E
Your head  come on  is dead  and gone
   A                  B
it might  as well  be said  so long
     E
It's suds  and soda  a brain  decoder
    A                B
and can  I wait  for my  decoder

Get off  get up  you son  of pop
the light  below  is bright  on top
It's suds  and soda  a smile  decoder
and can  I get  yeah what  I ordered?

   B / Bsus4     A  B   A  B   D  E   D  E  B  B    B      B/Bsus4
E--2----------------------------------------2--2----2--------------------|
B--4--6--4--6----2--4---2--4---7--9---7--9--4--4----4--4--4--6--4--6--4--|
G--4--4--4--4----2--4---2--4---7--9---7--9--4--4----4--4--4--4--4--4--4--|
D--4--4--4--4----2--4---2--4---7--9---7--9--4--4----4--4--4--4--4--4--4--|
A--2--2--2--2----x--2---x--2---5--7---5--7--2--2----2--------------------|
E--2----------------------------------------2--2----2--------------------|

 B                             A
  And there's always something in the air sometimes,
 B                             A
               suds & soda mix OK with beer    can I
 B                             A
              can I break your sentiment

Oohhh, you're just reminding me
can't see no person there
Just wanna shout what the f**k...  (play riff 2)

Jimmy Dean  is Halloween
like kerosene  for dee dee scene
It's suds  and soda  a brain  decoder
and can  I skip  this thing  I ordered

Get off  get up  you son  of pop
the light  below  is bright  on top
It's suds  and soda  a vibe  decoder
and can  I get  yeah what  I ordered?

  And there's always something in the air
  sometimes,
  suds & soda mix OK with beer
  can I
  can I break your sentiment

Ohh, you're just reminding me
can't see no person there
Just wanna shout what the f**k...

  And there's always something in the air

Your face  come on  is dead  and gone
you might as well  be said  so long
It's suds  and soda  a brain  decoder
and can  I wait  for my  devoter

Get off  get up  you son  of pop
the light  below  is bright  on top
It's suds  and soda  a smile  decoder
and can  I skip  yeah what  I ordered?
and can I break your sentiment

So can I break your sentiment (x11)

Friday, Friday

---------------------------
stefan nijenhuis
stefan11@worldaccess.nl

ĂŽnscrie-te la newsletter


Like us on Facebook