W C S Bass Tab - dEUS






Song: w.c.s (first draft)
ARTIST: dEUS
Album : Worst case scenario
AUTHOR: Marco F. mongo@zhol.ch

Intro 

G|-----/7--5-------------------| 
D|------------7----------------| 
A|--5------------8---2h3-----3-|
E|-----------------------------|

Main (where the double-bass comes in!)

G|-----/7--5-------------------| 
D|------------7----------------| 
A|--5------------8---3-------3-|
E|----------------------1------|

Somewhere the bassist plays once:

G|-----/7--5-------------------|
D|------------7----------/6b---|
A|--5------------8---3-------3-|
E|----------------------1------|

ĂŽnscrie-te la newsletter


Like us on Facebook