Bitter Pill Intro Tab - DevilDriver






yeah, im terrible with my ear, but im just givin this a shot its just the opening chorus

any corrections?
get me at slitheringdarcness@yahoo.com

IF ANY COULD TAB OUT THE ALBUM? THAT BE WONDERFUL (:
Kick a*s song  m/

intro guitar 2

|------------------------------------------------------------------|
|------------------------------------------------------------------|
|------------------------------------------------------------------|
|------------------------------------------------------------------|
|-0----0-3--3-7--7-3---0--0-3---3-8---8-7--------------------------|
|-0----0-3--3-7--7-3---0--0-3---3-8---8-7--------------------------|


chorus

|------------------------------------------------------------------|
|------------------------------------------------------------------|
|------------------------------------------------------------------|
|------------------------------------------------------------------|
|-0----0-3---7---3---0--0-3--8--7----------------------------------|
|-0----0-3---7---3---0--0-3--8--7----------------------------------|

Înscrie-te la newsletter


Join the ranks ! LIKE us on Facebook