Digging Up The Corpses Intro Tab - DevilDriver






Tunning B F# B E G# C#

*= p.m.

guitar 1 (clean) this is 100% correct
|---------------------------------------------------------------|2x
|---10--10--10--10--10--10--10--10--9--9--9--10--10--10---------|
|-13--13--13--11--11--11--11--11--11-11-11-11--11--11--11-------|
|---------------------------------------------------------------|
|---------------------------------------------------------------|
|---------------------------------------------------------------|

guitar 2 (distortion) im pretty sure on this part
|---------------------------------------------------------------|
|---------------------------------------------------------------|
|---------------------------------------------------------------|
|---------------------------------------------------------------|
|---------------------------------------------------------------|
|-0-0-0-0-0-0-8-8-8-8-8-8-8-8-8-8-7-7-7-7-7-5-5-5-5-5-5-5-5-5-5-|

|---------------------------------------------------------------|
|---------------------------------------------------------------|
|---------------------------------------------------------------|
|-0----------8--------7-------5---------------------------------|
|-0----------8--------7-------5---------------------------------|
|-0----------8--------7-------5---------------------------------|

|---------------------------------------------------------------|
|---------------------------------------------------------------|
|---------------------------------------------------------------|
|-0-0000---8--------7-7777-----5--------------------------------|
|-0-0000---8--------7-7777-----5--------------------------------|
|-0-0000---8--------7-7777-----5--------------------------------|
    ****              **** 
 guitar 1   
|---------------------------------------------------------------|2x |----|
|---10--10--10--10--10--10--10--10--9--9--9--10--10--10---------|   |----|
|-13--13--13--11--11--11--11--11--11-11-11-11--11--11--11-------|   |----| 
|---------------------------------------------------------------|   |-0--| 
|---------------------------------------------------------------|   |-0--|
|---------------------------------------------------------------|   |-0--|


Tabed by J.P.
















ĂŽnscrie-te la newsletter


Like us on Facebook