Digging Up The Corpses Tab - DevilDriver






DevilDriver
Digging Up The Corpses
Tuning Drop B

guitar 1 (clean) LISTEN TO THE SONG TO FIND OUT HOW MANY TIMES YOU
HIT THE NOTES
|---------------------------------|2x
|---------------------------------|
|----15-----15-------14--------15-|
|--19-----17-------17--------17---|
|---------------------------------|
|---------------------------------|

guitar 2 (distortion+delay) 
|---------------------------------------------------------------|
|---------------------------------------------------------------|
|---------------------------------------------------------------|
|---------------------------------------------------------------|
|---------------------------------------------------------------|
|-0-0-0-0-0-0-8-8-8-8-8-8-8-8-8-8-7-7-7-7-7-5-5-5-5-5-5-5-5-5-5-|

|---------------------------------------------------------------|
|---------------------------------------------------------------|
|---------------------------------------------------------------|
|-0----------8--------7-------5---------------------------------|
|-0----------8--------7-------5---------------------------------|
|-0----------8--------7-------5---------------------------------|

|---------------------------------------------------------------|
|---------------------------------------------------------------|
|---------------------------------------------------------------|
|-0-0000---8--------7-7777-----5--------------------------------|
|-0-0000---8--------7-7777-----5--------------------------------|
|-0-0000---8--------7-7777-----5--------------------------------|
    ****              **** 

Chorus
|-------------------------------|
|-------------------------------|
|-------------------------------|You should get the idea
|-1p0-000-1p0-000-1p0-8-8-8-7-5-|
|-1p0-000-1p0-000-1p0-8-8-8-7-5-|
|-1p0-000-1p0-000-1p0-8-8-8-7-5-|
      ***     ***    

Interlude
 

ĂŽnscrie-te la newsletter


Join the ranks ! LIKE us on Facebook