End Of The Line Intro Tab - DevilDriver






Devildriver-End Of The Line (Intro)

This Is My First Tab(HA! I've Always Wanted To Say That)
It Might Not Be Right, But It Gives You An Idea And You
Work On It.

With An Echo Effect On Clean
Intro 0:00                  Riff 1
c#||----------------------------||
g#||----------------------------||
 e||-11----11----12----12-------||
 b||----14----14----14----14----|| *However
f#||----------------------------||Many Times
 b||----------------------------||

Guitar 1 Riff 3               x2                              x2
c#||---------------------------||------------------------------||
g#||---------------------------||------------------------------||
 e||---------------------------||--11----11----12----12--------||x2
 b||-12-----12-----13----13----||-----14----14----14----14-----||
f#||----15-----15-----15----15-||------------------------------||
 b||---------------------------||------------------------------||

Guitar 2 Plays A Volume Knob Swell 
(Or Whatever You f*****g Call It)
I'm Still Working On it.
                     
Riff 5                       x3 
c#||---------------------------||------------------||
g#||---------------------------||------------------||
 e||---------------------------||---18----19-------||
 b||-12-----12-----13----13----||------21----21----||x4
f#||----15-----15-----15----15-||------------------||
 b||---------------------------||------------------||
     |. .    . .    . .   . .|
               P.M.
    
Distortion         x2
c#||-----------------|-------------------------------------------||
g#||-----------------|-----------------13-----------15-----------||
 e||-----------------|-6-------7----------16-16-16----18-18-18---||
 b||-6-------7-------|---9-9-9---9-9-9---------------------------||x2
f#||---9-9-9---9-9-9-|-------------------------------------------||
 b||-----------------|-------------------------------------------||

Tabbed By [S][H][A][D][E][S]
Enjoy!

ĂŽnscrie-te la newsletter


Join the ranks ! LIKE us on Facebook