End Of The Line Tab - DevilDriver






This is not the whole song, the clean intro and intro riffs are missing but im working
on them, this is pretty accurate and hopefully will be the base for someone elso to
work from, i cant find it anywhere else on the internet so enjoy!

Verse Riff ( 3 times )
c#||---------------------------------------------------------------------|
g#||---------------------------------------------------------------------|
 e||---------------------------------------------------------------------|
 b||---------------------------------------------------------------------|
f#||---------------------------------------------------------------------|
 b||/5-0-0-0-0-0-0/3-0-0-0-0-0-0/1-0-0-0-0-0-0/1-0-1/2-0-2---------------|to start of riff
       x x x x x x   x x x x x x   x x x x x x
Verse riff ( 4th and 5th time)

c#||---------------------------------------------------------------------|
g#||---------------------------------------------------------------------|
 e||---------------------------------------------------------------------|
 b||/5------------/3------------/1-------------1-0-1/2-0-2---------------|
f#||/5------------/3------------/1-------------1-0-1/2-0-2---------------|
 b||/5-0-0-0-0-0-0/3-0-0-0-0-0-0/1-0-0-0-0-0-0-1-0-1/2-0-2---------------|to start of riff
       x x x x x x   x x x x x x   x x x x x x
Pre-chorus

c#||------------------||
g#||------------------||
 e||------------------||
 b||------------------|| x 4
f#||-----b-------b----||
 b||-0-1-3-1-0-1-2-1--||


c#||-------------------------------------------------------|
g#||-------------------------------------------------------|
 e||-------------------------------------------------------|
 b||-----2------3------2------3------2------3--88888/10-10-|
f#||-0-0-2--0-0-3--0-0-2--0-0-3--0-0-2--0-0-3--88888/10-10-|
 b||-0-0-2--0-0-3--0-0-2--0-0-3--0-0-2--0-0-3--88888/10-10-|
     x x    x x    x x    x x    x x    x x

c#||-------------------------------------------------------|
g#||-------------------------------------------------------|
 e||-------------------------------------------------------|
 b||-------------------------------------------------------|
f#||-------------------------------------------88888/10-10-|
 b||-000/2--000/3--000/2--000/3--000/2--000/3--88888/10-10-|
     xxx    xxx    xxx    xxx    xxx    xxx

Middle S4ection Riffs

c#||----------------------------------------------------------|
g#||----------------------------------------------------------|
 e||----------------------------------------------------------|
 b||--------9p8-9p8--------8-9-8-9--------9p8-9p8----10-9-8---|
f#||-66--------------66--------------66---------------9-8-7---|
 b||-66-666----------66-666----------66-666----------10-9-8---|
        xxx             xxx             xxx


c#||------------------------------------------------------------|
g#||------------------------------------------------------------|
 e||------------------------------------------------------------|
 b||--------6p5-6p5--------5-6-5-6--------6p5-6p5---88888899999-|
f#||-33--------------33--------------33-------------------------|
 b||-33-333----------33-333----------33-333---------------------|
        xxx             xxx             xxx

c#||------------------------------------------------------------|
g#||------------------------------------------------------------|
 e||------------------------------------------------------------|
 b||-----10-------10-------10-----------------------------------|
f#||---------------------------/88888/10-10---------------------|
 b||-3-0----0-3-0----0-3-0----0/88888/10-10---------------------|
         ph       ph       ph

Legend

b= bend not slightly
ph=Pinced harmonic
x= palm mute
/=slide

ĂŽnscrie-te la newsletter


Join the ranks ! LIKE us on Facebook