End Of The Line ver3 Tab - DevilDriver






-------------------------------------------------------------------------------
     End Of The Line - Devildriver
-------------------------------------------------------------------------------
Tabbed by: metalmonkey147
Email:

Tuning: Drop B

 (0:51)
|-------------------------------------------------9-7-7-7-10-7-7-7----------|
|---------------------------------7-5-5-5-8-5-5-5---------------------------|
|-6-4-4-4-7-4-4-4-6-4-4-4-7-4-4-4-------------------------------------------|
|---------------------------------------------------------------------------| x2
|---------------------------------------------------------------------------|
|---------------------------------------------------------------------------|

|---------------------------------------------------|
|---------------------------------------------------|
|---------------------------------------------------|
|-----7---6p3-----7---6p3-----7---6p3-----7---6p3---|
|---------------------------------------------------|
|-333---3-----333---3-----333---3-----333---3-------|
  ...   .     ...   .     ...   .     ...   .
|---------------------------------------------------|
|---------------------------------------------------|
|---------------------------------------------------|
|-----5---4p2-----5---4p2-----5---4p2-----5---4p2---|
|---------------------------------------------------|
|-222---2-----222---2-----222---2-----222---2-------|
  ...   .     ...   .     ...   .     ...   .
|---------------------------------------------------|
|---------------------------------------------------|
|---------------------------------------------------|
|-----7---6p3-----7---6p3-----7---6p3-----7---6p3---|
|---------------------------------------------------|
|-333---3-----333---3-----333---3-----333---3-------|
  ...   .     ...   .     ...   .     ...   .
|---------------------------------------------------|
|---------------------------------------------------|
|---------------------------------------------------|
|-----5---4p2-----5---4p2-----5---4p2-----5---4p2---|
|---------------------------------------------------|
|-222---2-----222---2-----222---2-----222---2-------|
  ...   .     ...   .     ...   .     ...   .

|---------------------------------------------------------------------------|
|---------------------------------------------------------------------------|
|---------------------------------------------------------------------------|
|---------------------------------------------------------------------------|
|-----7-7-6-3---------7-7-6-3---------5-5-4-2---------5-5-4-2---------------|
|-3-3---------5b--3-3---------5b--2-2---------4b--2-2---------4b------------|

|---------------------------------------------------------------------------|
|---------------------------------------------------------------------------|
|---------------------------------------------------------------------------|
|-----7-7-6-3---------7-7-6-3---------5-5-4-2---------5-5-4-2---------------|
|---------------------------------------------------------------------------|
|-3-3---------5b--3-3---------5b--2-2---------4b--2-2---------4b------------|

|--------------------------|
|--------------------------|
|--------------------------|
|--------------------------|
|--3-3---0-0---------------|
|--3-3---0-0----8\\

ĂŽnscrie-te la newsletter


Like us on Facebook