Hold Back The Day (ver2) Tab - DevilDriver






Devil DriverLEAD GUITAR
Hold Back the Day

TUNING:   Try one of these tunings-   1|    E      Eb      D      C
          it should be a low one      2|    B      Bb      A      G
          either way it will still    3|    G      Gb      F      E
          sound the same              4|    D      Db      C      B
                                      5|    A      Ab      G      F
                                      6|    D      Db      C      B

INTRO - Acoustic

--------------------------------|---------------------------------|---------------------------------|
--------------------------------|---------------------------------|---------------------------------|
------0-3-----0-3-----7-------6-|-----0-3-----0-3-----7-------6-6-|------0-3-----0-3-----7-------6--|
----------0-------------8-------|---------0-------------8---------|----------0-------------8--------|
----0-------0-------8-------7---|---0-------0-------8-------7-----|----0-------0-------8-------7----|
--0---------------8-------7-----|-0---------------8-------7-------|--0---------------8-------7------|


INTRO 2

-------------------------------------|---------------------------------------|
-------------------------------------|---------------------------------------|
-------------------------------------|---------------------------------------|
-------------------------------------|---------------------------------------|
---3---3---\\---3---8---8---7---7-|---3---3---\\---3---8---8---7---15--|b
-0-3-0-3-0-\\-0-3-0-8-0-8-0-7-0-7-|-0-3-0-3-0-\\-0-3-0-8-0-8-0-7-0-----|
 ^                                     ^
                       \\                                 \\
                       \\                                 \\
See which one sounds better-
with both guitars sliding, or just one.


CHORUS A

--------------------------------------------------------------------|
--------------------------------------------------------------------|
--------------------------------------------------------------------|
--------------------------------------------------------------------|
--1212121212121212121212121212121213131313131313131313131313131313--|
--------------------------------------------------------------------|

--------------------------------------------------------------------|
--------------------------------------------------------------------|
--------------------------------------------------------------------|
--1212121212121212121212121212121211111111111111111111111111111111--|
--------------------------------------------------------------------|
--------------------------------------------------------------------|

--------------------------------------------------------------------|
--------------------------------------------------------------------|
--------------------------------------------------------------------|
--------------------------------------------------------------------|
--1212121212121212121212121212121213131313131313131313131313131313--|
--------------------------------------------------------------------|

--------------------------------------------------------------------|
--------------------------------------------------------------------|
--------------------------------------------------------------------|
--15151515151515151414141414141414--------------6b------------------|
--------------------------------------------------------------------|
------------------------------------7-8-7-5-7-0---------------------|


CHORUS B  2x

--------------------------------------------------------------------|
--------------------------------------------------------------------|
--------------------------------------------------------------------|
--------------------------------------------------------------------|
--1212121212121212121212121212121213131313131313131313131313131313--|
--------------------------------------------------------------------|

--------------------------------------------------------------------|
--------------------------------------------------------------------|
--------------------------------------------------------------------|
--1212121212121212121212121212121211111111111111111111111111111111--|
--------------------------------------------------------------------|
--------------------------------------------------------------------|


VERSE


            

ĂŽnscrie-te la newsletter


Like us on Facebook