Hold Back The Day Bass Tab - DevilDriver






Wait until the first guitar is done and goes to distortion


G------------------------------------------------------------------------------|
D------------------------------------------------------------------------------|
A------------------------------------------------------------------------------|
B-0-3-0-3-0-3-0-3--0-8-0-8-0-7-0-7-0-------------------------------------------|

Chorus

G------------------------------------------------------------------------------|
D------------------------------------------------------------------------------|
A------------------------------------------------------------------------------|
B-00000000000000000000000-33333333333333333333333-2222222222222222222222222----|
X4

Verse

G----------------------------------------------------------------------------|
D----------------------------------------------------------------------------|
A----------------------------------------------------------------------------|
B-00000000000000000000000-33333333333333333333333-2222222222222222222222222--|

G----------------------------------------------------------------------------|
D----------------------------------------------------------------------------|
A----------------------------------------------------------------------------|
B-1-0--00-000000000--1-0-00-000000000-1-0-00-000000000-----------------------|

G----------------------------------------------------------------------------|
D----------------------------------------------------------------------------|
A--------1-0-----------------------------------------------------------------|
B-1-0-00-------3-0--1-0-00-------3-0-----------------------------------------|

G----------------------------------------------------------------------------|
D----------------------------------------------------------------------------|
A----------------------------------------------------------------------------|
B-0-0-0-0-0-0-0-0-0-0-0-0-0-0-0-0-8-8-8-8-8-8-8-8-8-8-8-8-8-8-8-8------------|

G----------------------------------------------------------------------------|
D----------------------------------------------------------------------------|
A----------------------------------------------------------------------------|
B-7-7-7-7-7-7-7-7-7-7-7-7-7-7-7-7--------------------------------------------|

Bridge

G----------------------------------------------------------------------------|
D----------------------------------------------------------------------------|
A----------------------------------------------------------------------------|
B-0-5-7-3-0-0-------0-5-7-3-3-3--------0-5-7-2-2-2---------------------------|

ĂŽnscrie-te la newsletter


Join the ranks ! LIKE us on Facebook