I Could Care Less (ver2) Tab - DevilDriver






Tuning:DROP B

intro guitar 1 "listen to song"
e|----13-----13-----15----17------17-----------------------------------------|
B|--------15----15-----15----15-15-------------------------------------------|
G|---------------------------------------------------------------------------|
D|---------------------------------------------------------------------------|
A|---------------------------------------------------------------------------|
E|---------------------------------------------------------------------------|


guitar 2
repeat until dez shouts "BURNS AWAY!!!!!!!!!!!!!!!!!"
e|---------------------------------------------------------------------------|
B|---------------------------------------------------------------------------|
G|---------------------------------------------------------------------------|
D|---------------------------------------------------------------------------|
A|---------------------------------------------------------------------------|
E|--000-0-000-0-000-0-000-0-000-000------------------------------------------|
XXXXXXXXXXXXXXXXXXXXXXXXXXXXXXXXXXXXXX

then... and verse
e|---------------------------------------------------------------------------|
B|---------------------------------------------------------------------------|
G|---------------------------------------------------------------------------|
D|---3-0-3-0-3-0-3-0--2222---------------------------------------------------|
A|---3-0-3-0-3-0-3-0--2222---------------------------------------------------|
E|---3p0-3p0-3p0-3p0--2222---------------------------------------------------|

when dez is shouting "i could care less!" play this over it
e|---------------------------------------------------------------------------|
B|---------------------------------------------------------------------------|
G|---------------------------------------------------------------------------|
D|---557-557-557-557--7-557-557-557-557-5------------------------------------|
A|---557-557-557-557--7-557-557-557-557-5------------------------------------|
E]---557-557-557-5575-7-557-557-557-55755------------------------------------|
                    x                  x

repeat the above until dez then goes ...

"dont you know our lives our on trial now!!!"
e|---------------------------------------------------------------------------|
B|---------------------------------------------------------------------------|
G|---------------S-----------------------------------------------------------|
D|-7-3-0~--3-5-0-T-----------------------------------------------------------|
A|-7-3-0~--3-5-0-O-----------------------------------------------------------|
E|-7-3-0~--3-5-0-P-----------------------------------------------------------|

then back to the intro then verse..listen to the song

| /  slide up
|   slide down
| h  hammer-on
| p  pull-off
| ~  vibrato
| +  harmonic
| x  Mute note
===============================================================================

ĂŽnscrie-te la newsletter


Like us on Facebook