When Summoned Bass Tab - DevilDriver






?[--------------------------------]
B[--------------------------------]
?[--------------------------------]
B[0-1-2--------------------------]x2

?[--------------------------------]
B[--------------------------------]
?[--------------------------------]
B[0-1-2-2-2-2-2-2-2-2-2-2-2-2-2-2-]x1

?[--------------------------------]
B[--------------------------------]
?[--------------------------------]
B[0-1-2----------4444444433333333]x1

?[--------------------------------]
B[--------------------------------]
?[--------------------------------]
B[2-2-2-3-2-2-0-1-2-2-2-5-2-2-0-1-]x3

?[--------------------------------|--------------------------------]
B[--------------------------------|--------------------------------]
?[--------------------------------|--------------------------------]
B[2-2-2-3-2-2-0-1-2-2-2-5-2-2-0-1-|2-2-2-3-2-2-0-1-4444444433330-1-]x1

                                     This part is a little tricky^

A simple way to play it would be:
?[--------------------------------|--------------------------------]
B[--------------------------------|--------------------------------]
?[--------------------------------|--------------------------------]
B[2-2-2-3-2-2-0-1-2-2-2-5-2-2-0-1-|2-2-2-3-2-2-0-1-444444443-3-0-1-]x1

----------------------------------------------------------------------
Mostly, after that, it's:

?[----------------|----------------|----------------|----------------]
B[----------------|----------------|----------------|----------------]
?[----------------|----------------|----------------|----------------]
B[2-----------0-1-|2-----------0-1-|2---------------|4444444433333333]

You can listen to the song, and find out in what order all of these parts go in after.









ĂŽnscrie-te la newsletter


Join the ranks ! LIKE us on Facebook