Death Cult Armageddon (album) Tab - Dimmu Borgir






Key_________________

.  - palm mute           /  - slide up to
  - slide down to       ~  - vibrato
h  - hammer on           b  - Bend
p  - pull off            Suffixes for bend
t  - tap                 f  - full bend    h - half bend
ph - pinched harmonic    q  - quarter bend t - tap bend
*  - see comment         ^  - Hold bend    r release bend
x  - Stuccatto           ~  - vibrato bend
,  - slight palm mute    () - ghost note, sustained note
"  - tremolo note         - Trill

=========================================

1. Allegiance

Tunning E A D G B E


Intro


|-----------------------------------|
|-----------------------------------|
|-10----10----10-------4------------|
|-8--8--9--8--8--8--9--4------------| x4
|-8--8--8--8--8--8--8--2------------|
|-----------------------------------|

|-----------------------------------|
|-----------------------------------|
|-87-7-7-7/8-87-7-3/4(3)---------|
|-87-7-7-7/8-87-7-3/4(3)---------|
|-65-5-5-5/6-65-5-1/2(1)---------|
|-----------------------------------|

|-----------------------------------|
|-----------------------------------|
|-87-7-7-7/8-8-8-8-8---------------|
|-87-7-7-7/8-8-8-8-8---------------|
|-65-5-5-5/6-6-6-6-6---------------|
|-----------------------------------|



Main part
|-----------------------------------|
|-----------------------------------|
|------------------8----------------|
|-4-3--4-3-4--8-88-8----------------|
|-2-1--2-1-2--6-66-6----------------|
|-----------------------------------|
  . .  . . .  . ..

|--------------------------------------------------------------|
|--------------------------------------------------------------|
|---------------------------------------------777777777777-----|
|-99998888888888888888888888888888999988889999777777777777-----| Gtr I
|-99998888888888888888888888888888999988889999555555555555-----|
|-77776666666666666666666666666666777766667777------------6677-|
|
|--------------------------------------------------------------|
|--------------------------------------------------------------|
|---------------------------------------------777777777777-----|
|-99998888888888888888888888888888999988889999------------8899-| Gtr II
|--------------------------------------------------------------|
|--------------------------------------------------------------|

|--------------------------------------------------------------|
|--------------------------------------------------------------|
|--------------------------------------------------------------|
|-9999888888888888888888888888888899998888999922222222222222222| Gtr I
|-7777666666666666666666666666666677778888777722222222222222222|
|-7777666666666666666666666666666677778888777700000000000000000|
|
|--------------------------------------------------------------|
|--------------------------------------------------------------|
|--------------------------------------------------------------|
|-99998888888888888888888888888888999988889999-----------------| Gtr II
|---------------------------------------------77777777777777777|
|--------------------------------------------------------------|

When vocals start and blast beat ends, play the same thing with open chords



2:05
  B5      G5   A5
|-----------------------------------|
|-----------------------------------|
|-----7-----------------------------|
|---9---9---5--/7-5-----------------| x4
|--9-------5------------------------|
|-7-------3-------------------------|


|-------------------------------------------|
|-------------------------------------------|
|-------------------------------------------|
|-----7-----7----------7-------7h8p7h8p7h8--|
|-5-5---5-5---5-55-4-4---4---8--------------|
|--------------------------6----------------|
  . .   . .   . .. . .   . .


2:50
|-------------------------------------|
|------7--------7--------7------------|
|-8--9---8-8--9---8-8--9---8----9-----|
|-8--------8--------8--------9--9-11--|
|-6--------6--------6--------9--7-11--|
|----------------------------7----9---|


3:37
|-----------------------------------------------------------------------------
|-----------------------------------------------------------------------------
|----------------------------------------------------------7777101010109999---
|----------------------------------------------777710101010-------------------
|-7-7-7-7-7-7-7-7-7-7-7-7-7-7-7-7-7-7--77778888-------------------------------
|-----------------------------------------------------------------------------
  . . . . . . . . . . . . . . . . . .
|-----------------------------------------------------------------------------
|-----------------------------------------------------------------------------
|----------------------------------------------------------7777101010109999---
|----------------------------------------------777710101010-------------------
|-7-7-7-7-7-7-7-7-7-7-7-7-7-7-7-7-7-7--77778888-------------------------------
|-----------------------------------------------------------------------------
  . . . . . . . . . . . . . . . . . .
|-----------------------------------------------------------------------------
|-----------------------------------------------------------------------------
|----------------------------------------------------------7777101010109999---
|----------------------------------------------777710101010-------------------
|-7-77777-77777-77777-77777-77777-7777-77778888-------------------------------
|-----------------------------------------------------------------------------
  . ..... ..... ..... ..... ..... ....
|-----------------------------------------------------------------------------
|-----------------------------------------------------------------------------
|----------------------------------------------------------7777101010109999---
|----------------------------------------------777710101010-------------------
|-7-7-7-7-7-7-7-7-7-7-7-7-7-7-7-7-7-7--77778888-------------------------------
|-----------------------------------------------------------------------------
  . . . . . . . . . . . . . . . . . .

Extra gtr plays continuously something like this at the background

|-----------------------------------|
|-----------------------------------|
|---9-10-11-10-9--------------------|
|-9---------------------------------|
|-----------------------------------|
|-----------------------------------|



Next comes the main part again and after that
|------------------------------------------------|
|------------------------------------------------|
|------------------------------------------------|
|------------------------------------------------|
|----------9-7-9-7-9----------9-7-9-7-9----------|
|-777777777---7---7--777777777---7---7-----------|
  .........   .   .  .........   .   .

|------------------------------------------------|
|------------------------------------------------|
|------------------------------------8---8-------|
|------------------------------------8---8-------|
|----------10-8-10-8-10------------6-6-6-6-------|
|-888888888----8----8--888888888-----------------|
  .........    .    .  .........   .   .




The melody at the end goes something like this
|-------------------------------------|
|-------------------------------------|
|-9-10---------11-9-------11-9-----11-|
|-----10-9-9-9-----10-9-9------9-9----|
|-------------------------------------|
|-------------------------------------|
           . .        . .      . .

|-------------------------------------|
|-------------------------------------|
|-9-10---------11-9-------11-9-----11-|
|-----10-9-9-9-----10-9-9------9-9----|
|-------------------------------------|
|-------------------------------------|
           . .        . .      . .

|-------------------------------------------|
|-------------------------------------------|
|-10-12----------12-10--------12-10------12-|
|------10-9-10-10------9-10-10------10-10---|
|-------------------------------------------|
|-------------------------------------------|
             . .          . .       . .

|-------------------------------------------|
|-------------------------------------------|
|-10-12----------12-10--------12-10------12-|
|------10-9-10-10------9-10-10------10-10---|
|-------------------------------------------|
|-------------------------------------------|
             . .          . .       . .


|------------------------------------------------|
|------------------------------------------------|
|------------------------------------------------|
|------------------------------------------------|
|----------9-7-9-7-9----------9-7-9-7-9----------|
|-777777777---7---7--777777777---7---7-----------|
  .........   .   .  .........   .   .

|------------------------------------------------|
|------------------------------------------------|
|------------------------------------8---8-------|
|------------------------------------8---8-------|
|----------10-8-10-8-10------------6-6-6-6-------|
|-888888888----8----8--888888888-----------------|
  .........    .    .  .........   .   .

|------------------------------------------------|
|------------------------------------------------|
|------------------------------------------------|
|------------------------------------------------|
|----------9-7-9-7-9----------9-7-9-7-9----------|
|-777777777---7---7--777777777---7---7-----------|
  .........   .   .  .........   .   .

|------------------------------------------------|
|------------------------------------------------|
|------------------------------------------------|
|------------------------------------------------|
|----------10-8-10-8-10--------------------------|
|-888888888----8----8--888888888-----------------|
  .........    .    .  .........


|-----------------------------------|
|-----------------------------------|
|-8--8--8---------------------------|
|-8--8--8--8-5-5-4------------------|
|-6--6--6--6-3-3-2------------------|
|-----------------------------------|
           . . . .




2. Progenies Of The Great Apocalypse


they use 7 stringed guitars for this, but I tabbed it for a 6 stringed
guitar, so some of the riffs may be taken an octave lower.


(16x)
E-------------------|
B-------------------|
G-8-8-8-8-----------|
D-8-8-8-8-----------|
A-6-6-6-6-----------|
E-6-6-6-6-----------|



verse

E---------------------------------------------------|
B---------------------------------------------------|
G---------------------------------------------------|
D---------------------------------------------------|
A-4-------------------------------7-----------------|
E-2-222-222-222-222-222-222-222-225-555-555-555-555-|



E---------------------------------------------------|
B---------------------------------------------------|
G---------------------------------------------------|
D---------------------------------------------------|
A--15--15-15-15-14--14-14-14-12--12-12-12-11--11-11-|
E-/13--13-13-1312--12-12-1210--10-10-109---9--9--|



E---------------------------------------------------|
B---------------------------------------------------|
G---------------------------------------------------|
D---------------------------------------------------|
A-4-------------------------------8-----------------|
E-2-222-222-222-222-222-222-222-226-666-666-666-666-|



E---------------------------------------------------|
B---------------------------------------------------|
G---------------------------------------------------|
D---------------------------------------------------|
A--11--11-11-11-10--10-10-10-8--8-8-87--7-7--------|
E-/9---9--9--9-8---8--8--8-6--6-6-6-5--5-5--------|



E---------------------------------------------------|
B---------------------------------------------------|
G---------------------------------------------------|
D---------------------------------------------------|
A-4-------------------------------7-----------------|
E-2-222-222-222-222-222-222-222-225-555-555-555-555-|



E---------------------------------------------------|
B---------------------------------------------------|
G---------------------------------------------------|
D---------------------------------------------------|
A--15--15-15-15-14--14-14-14-12--12-12-12-11--11-11-|
E-/13--13-13-1312--12-12-1210--10-10-109---9--9--|



E---------------------------------------------------|
B---------------------------------------------------|
G---------------------------------------------------|
D---------------------------------------------------|
A-4-------------------------------8-------8-------8-|
E-2-222-222-222-222-222-222-222-226-----666-----666-|



E---------------------------------------------------|
B---------------------------------------------------|
G---------------------------------------------------|
D---------------------------------------------------|
A---8---8---8---------------------------------------|
E-666-666-666---------------------------------------|



E---------------------------------------------------|
B---------------------------------------------------|
G---------------------------------------------------|
D---------------------------------------------------|
A-4-------------------------------7-----------------|
E-2222222222222222222222222222222255555555555555555-|



E---------------------------------------------------|
B---------------------------------------------------|
G---------------------------------------------------|
D---------------------------------------------------|
A--15--15-15-15-14--14-14-14-12--12-12-12-11--11-11-|
E-/13--13-13-1312--12-12-1210--10-10-109---9--9--|



E---------------------------------------------------|
B---------------------------------------------------|
G---------------------------------------------------|
D---------------------------------------------------|
A-4-------------------------------8-----------------|
E-2222222222222222222222222222222266666666666666666-|



E---------------------------------------------------|
B---------------------------------------------------|
G---------------------------------------------------|
D---------------------------------------------------|
A--11--11-11-11-10--10-10-10-8--8-8-87--7-7--------|
E-/9---9--9--9-8---8--8--8-6--6-6-6-5--5-5--------|



E---------------------------------------------------|
B---------------------------------------------------|
G---------------------------------------------------|
D---------------------------------------------------|
A-4-------------------------------7-----------------|
E-2222222222222222222222222222222255555555555555555-|



E---------------------------------------------------|
B---------------------------------------------------|
G---------------------------------------------------|
D---------------------------------------------------|
A--15--15-15-15-14--14-14-14-12--12-12-12-11--11-11-|
E-/13--13-13-1312--12-12-1210--10-10-109---9--9--|



E---------------------------------------------------|
B---------------------------------------------------|
G---------------------------------------------------|
D---------------------------------------------------|
A-4-------------------------------8-------8-------8-|
E-222222222222222222222222222222226-----666-----666-|



E---------------------------------------------------|
B---------------------------------------------------|
G---------------------------------------------------|
D---------------------------------------------------|
A---8---8---8---------------------------------------|
E-666-666-666---------------------------------------|



(16x)
E-------------------|
B-------------------|
G-8-8-8-8-----------|
D-8-8-8-8-----------|
A-6-6-6-6-----------|
E-6-6-6-6-----------|



E---------------------------------------------------|
B---------------------------------------------------|
G---------------------------------------------------|
D---------------------------------------------------|
A-4-------------------------------7-----------------|
E-2222222222222222222222222222222255555555555555555-|



E---------------------------------------------------|
B---------------------------------------------------|
G---------------------------------------------------|
D---------------------------------------------------|
A--15--15-15-15-14--14-14-14-12--12-12-12-11--11-11-|
E-/13--13-13-1312--12-12-1210--10-10-109---9--9--|



E---------------------------------------------------|
B---------------------------------------------------|
G---------------------------------------------------|
D---------------------------------------------------|
A-4-------------------------------8-----------------|
E-2222222222222222222222222222222266666666666666666-|



E---------------------------------------------------|
B---------------------------------------------------|
G---------------------------------------------------|
D---------------------------------------------------|
A--11--11-11-11-10--10-10-10-8--8-8-87--7-7--------|
E-/9---9--9--9-8---8--8--8-6--6-6-6-5--5-5--------|



E---------------------------------------------------|
B---------------------------------------------------|
G---------------------------------------------------|
D---------------------------------------------------|
A-4-------------------------------7-----------------|
E-2222222222222222222222222222222255555555555555555-|



E---------------------------------------------------|
B---------------------------------------------------|
G---------------------------------------------------|
D---------------------------------------------------|
A--15--15-15-15-14--14-14-14-12--12-12-12-11--11-11-|
E-/13--13-13-1312--12-12-1210--10-10-109---9--9--|



E---------------------------------------------------|
B---------------------------------------------------|
G---------------------------------------------------|
D---------------------------------------------------|
A-4-------------------------------8-------8-------8-|
E-222222222222222222222222222222226-----666-----666-|



E---------------------------------------------------|
B---------------------------------------------------|
G---------------------------------------------------|
D---------------------------------------------------|
A---8---8---8---------------------------------------|
E-666-666-666---------------------------------------|



(you'll have to listen closely to the cd
for the exact timing here on out)

E---------------------------------------------------|
B---------------------------------------------------|
G-6~-------4-6-7-6-7-6-4~---------------------------|
D-6~-------4-6-7-6-7-6-4~---------------------------|
A-4~-------2-4-5-4-5-4-2~---------------------------|
E-4~-------2-4-5-4-5-4-2~---------------------------|



E---------------------------------------------------|
B---------------------------------------------------|
G-6~-------4-6-7-6-7-6-11~-----12~------------------|
D-6~-------4-6-7-6-7-6-11~-----12~------------------|
A-4~-------2-4-5-4-5-4-9~------10~------------------|
E-4~-------2-4-5-4-5-4-9~------10~------------------|



E---------------------------------------------------|
B---------------------------------------------------|
G-6~-------4-6-7-6-7-6-4~---------------------------|
D-6~-------4-6-7-6-7-6-4~---------------------------|
A-4~-------2-4-5-4-5-4-2~---------------------------|
E-4~-------2-4-5-4-5-4-2~---------------------------|



E---------------------------------------------------|
B---------------------------------------------------|
G-6~-------4-6-7-6-7-6-11~-----12~------------------|
D-6~-------4-6-7-6-7-6-11~-----12~------------------|
A-4~-------2-4-5-4-5-4-9~------10~------------------|
E-4~-------2-4-5-4-5-4-9~------10~------------------|



well, since he uses a 7 string, the c# and b would be an octave lower

E--------------------------------------------------------|
B--------------------------------------------------------|
G--------------------------------------------------------|
D--------------------------------------------------------|
A-444444444444--444444444444--222222222222--222222222222-|
E--------------------------------------------------------|



E--------------------------------------------------------|
B--------------------------------------------------------|
G--------------------------------------------------------|
D--------------------------------------------------------|
A-444444444444--444444444444-----------------------------|
E-----------------------------222222222222--333333333333-|



E---------------------------------------------------------|
B---------------------------------------------------------|
G---------------------------------------------------------|
D-6-6-6---------------6-66--6---------------4-4-4---------|
A-4-4-4--444444444444-4-44--4-444444444444--2-2-2---------|
E-4-4-4---------------4-44--4---------------2-2-2---------|



E---------------------------------------------------------|
B---------------------------------------------------------|
G---------------------------------------------------------|
D---------------4-44--4-------------------6-6-6-----------|
A-222222222222--2-22--2-2222222222222222--4-4-4-----------|
E---------------2-22--2-------------------4-4-4-----------|



E---------------------------------------------------------|
B---------------------------------------------------------|
G---------------------------------------------------------|
D--------------6-66--6---------------4-4-4----------------|
A-444444444444-4-44--4-444444444444--2-2-2----------------|
E--------------4-44--4---------------2-2-2--222222222222--|



E---------------------------------------------------------|
B---------------------------------------------------------|
G---------------------------------------------------------|
D-5-55--5-------------------------------------------------|
A-3-33--3-------------------------------------------------|
E-3-33--3-333333333333------------------------------------|


.........Orchestra interlude....



E--------------------------------------------------------|
B--------------------------------------------------------|
G--------------------------------------------------------|
D-666666666666666666666666666444444444444444444444444444-|
A-444444444444444444444444444222222222222222222222222222-|
E-444444444444444444444444444222222222222222222222222222-|



E--------------------------------------------------------|
B--------------------------------------------------------|
G--------------------------------------------------------|
D-666666666666666666666666666444444444444444444444444444-|
A-444444444444444444444444444222222222222222222222222222-|
E-444444444444444444444444444222222222222222222222222222-|



E-------------------------------------------------------------------------|
B-------------------------------------------------------------------------|
G-------------------------------------------------------------------------|
D-6--6--6--6--6-6--6-6--6--6--6-6--6-6-4--4--4--4--4-4--4-4--4--4--4-4--4-|
A-4--4--4--4--4-4--4-4--4--4--4-4--4-4-2--2--2--2--2-2--2-2--2--2--2-2--2-|
E-4--4--4--4--4-4--4-4--4--4--4-4--4-4-2--2--2--2--2-2--2-2--2--2--2-2--2-|



E-------------------------------------------------------------------------|
B-------------------------------------------------------------------------|
G-------------------------------------------------------------------------|
D-6--6--6--6--6-6--6-6--6--6--6-6--6-6-4--4--4----4--4--4-----------------|
A-4--4--4--4--4-4--4-4--4--4--4-4--4-4-2--2--2----2--2--2-----------------|
E-4--4--4--4--4-4--4-4--4--4--4-4--4-4-2--2--2----2--2--2-----------------|



(16x)
E-------------------|
B-------------------|
G-8-8-8-8-----------|
D-8-8-8-8-----------|
A-6-6-6-6-----------|
E-6-6-6-6-----------|




3. Lepers Among Us

Tunning E A D G B E

Intro
|-------------------------------------------------------------------|
|-------------------------------------------------------------------|
|-------------------------------------------------------------------|
|-------------------------------------9/x---------------------------|
|-------------------------------------7/x---------------------------|
|-222222222-2222222---222222222-2222--7/x---------------------------|
  ......... .......   ......... ....                        (2 times)

Riff 1
Gtr 1
|-------------------------------------------------------------------|
|-------------------------------------------------------------------|
|-------------------6-----------------------------------------------|
|----4---5------4-----4-----5/x-------------------------------------|
|----------4----------------3/x-------------------------------------|
|-22---2-----22---2-------------------------------------------------|
  ..   .     ..   .
|-------------------------------------------------------------------|
|-------------------------5-----------------------------------------|
|-------------------6-------6---------------------------------------|
|----4---5------4-----4-------5-------------------------------------|
|----------4--------------------------------------------------------|
|-22---2-----22---2-----2-------------------------------------------|
  ..   .     ..   .     .

Gtr 2
|-------------------------------------------------------------------|
|-------------------------------------------------------------------|
|-------------------------------------------------------------------|
|-------------5/x-----------------9/x-------------------------------|
|-------------3/x-----------------7/x-------------------------------|
|-22222-2222----------22222-2222--7/x-------------------------------|
  ..... ....          ..... ....                            (4 times)

Riff 2
|-------------------------------------------------------------------|
|-------------------------------------------------------------------|
|-------9/x---------910-10-10-10/8-8-8-----------------------------|
|-2-----9/x---2-----910-10-10-10/8-8-8-----------------------------|
|-2-----7/x---2-----7-8--8--8--8/6-6-6-----------------------------|
|-0-00--7/x---0-00--7-8--8--8--8/6-6-6-----------------------------|
    ..          ..
|-------------------------------------------------------------------|
|-------------------------------------------------------------------|
|-------9/x---------910-10/x---------------------------------------|
|-2-----9/x---2-----910-10/x---------------------------------------|
|-2-----7/x---2-----7-8--8/x---------------------------------------|
|-0-00--7/x---0-00--7-8--8/x---------------------------------------|
    ..          ..                                          (2 times)

Play Riff 1 4 times
Play Riff 2 1 time then

Fill 1
|-------------------------------------------------------------------|
|-------------------------------------------------------------------|
|-------9/x----------910-10-10-10/8-8-8----------------------------|
|-2-----9/x----2-----910-10-10-10/8-8-8----------------------------|
|-2-----7/x----2-----7-8--8--8--8/6-6-6----------------------------|
|-0-00--7/x----0-00--7-8--8--8--8/6-6-6----------------------------|
    ..           ..

|-------------------------------------------------------------------|
|-------------------------------------------------------------------|
|----------9/x---------910-10/x------------------------------------|
|-2--------9/x---2-----910-10/x------------------------------------|
|-2--------7/x---2-----7-8--8/x------------------------------------|
|-0-0-0-0--7/x---0-00--7-8--8/x------------------------------------|
    . . .          ..                                       (1 time)

Riff 3
Gtr 1?

Gtr 2
|-------------------------------------------------------------------|
|-------------------------------------------------------------------|
|-------------------------------------------------------------------|
|-------------------------------------------------------------------|
|----------------------------666666---------------------------------|
|-0000000000000000-6666-8888----------------------------------------|

|-------------------------------------------------------------------|
|-------------------------------------------------------------------|
|-------------------------------------------------------------------|
|-------------------------------------------------------------------|
|--------------------------7h8p7h8p7h8p7----------------------------|
|-11111111111111111-888888------------------------------------------|

|-------------------------------------------------------------------|
|-------------------------------------------------------------------|
|-------------------------------------------------------------------|
|-------------------------------------------------------------------|
|-----------------------------666666--------------------------------|
|-00000000000000000-6666-8888---------------------------------------|

|-------------------------------------------------------------------|
|-------------------------------------------------------------------|
|-------------------------------------------------------------------|
|-------------------------------------------------------------------|
|-------------------------------------------------------------------|
|-11111111111111111-888888-666666-----------------------------------|
                                                            (2 times)

Riff 4
|-------------------------------------------------------------------|
|-------------------------------------------------------------------|
|--------------------------9/x-------------------910-10-10-10/8-8-8|
|--------------------------9/x-------------------910-10-10-10/8-8-8|
|--------------------------7/x-------------------7-8--8--8--8/6-6-6|
|-0-0-0-0-000-000-0-0-0-0--7/x--1-1-1-1-111-111--7-8--8--8--8/6-6-6|
  . . . . ... ... . . . .       . . . . ... ...             (4 times)

Play Riff 3 2 times then:

Transition
|-------------------------------------------------------------------|
|-------------------------------------------------------------------|
|-------------------------------------------------------------------|
|-5--7--6-----6----------7--6---------------------------------------|
|-5--5--4-----4----------5--4---------------------------------------|
|-3--5--4-4-4-4----------5--4---------------------------------------|
          . .

Riff 5
|-------------------------------------------------------------------|
|-------------------------------------------------------------------|
|-------------------------------------------------------------------|
|-7-7-7-6---5--7--6---7-7-7-6---5--7--6---7-7-7---------------------|
|-5-5-5-4---5--5--4---5-5-5-4---5--5--4---5-5-5---------------------|
|-5-5-5-4---3--5--4---5-5-5-4---3--5--4---5-5-5---------------------|

Riff 6a
Gtr 1
|-------------------------------------------------------------------|
|-------------------5h6p5-------------------------------------------|
|-------6h7p6-------------------6h7p6-------------------------------|
|--------------------------------------5--7-------------------------|
|-4-444-------4-444-------4-444--------5--5-------------------------|
|--------------------------------------3--5-------------------------|
  . ...       . ...       . ...

|-------------------------------------------------------------------|
|-------------------5h6p5-------------------------------------------|
|-------6h7p6-------------------6h7p6-------------------------------|
|--------------------------------------7--7-------------------------|
|-4-444-------4-444-------4-444--------5--5-------------------------|
|--------------------------------------5--5-------------------------|
  . ...       . ...       . ...

Gtr 2
|-------------------------------------------------------------------|
|-------------------------------------------------------------------|
|-------------------6h7p6-------------------------------------------|
|-------6h7p6-------------------6h7p6--5--7-------------------------|
|-4-444-------4-444-------4-444--------5--5-------------------------|
|--------------------------------------3--5-------------------------|
  . ...       . ...       . ...

|-------------------------------------------------------------------|
|-------------------------------------------------------------------|
|-------------------6h7p6-------------------------------------------|
|-------6h7p6-------------------6h7p6--7--7-------------------------|
|-4-444-------4-444-------4-444--------5--5-------------------------|
|--------------------------------------5--5-------------------------|
  . ...       . ...       . ...                            (2 times)

Riff 6b
Gtr 1
|----------------------------------------------------------4h5p4h5p4|
|----------------------5h6p5h6p5-----------------5h6p5h6p5----------|
|-------6h7p6h7p6----------------------6h7p6h7p6--------------------|
|-------------------------------------------------------------------|
|-4-444-----------4-444----------4-444------------------------------|
|-------------------------------------------------------------------|
  . ...           . ...          . ...

|-------------------------------------------------------------------|
|-----------------------5h6p5h6p5-----------------------------------|
|-------6h7p6h7p6-----------------------6h7p6h7p6-------------------|
|--------------------------------------------------7--7-------------|
|-4-444-----------4-444-----------4-444------------5--5-------------|
|--------------------------------------------------5--5-------------|
  . ...           . ...           . ...

Gtr 2
|--------------------------------------------------------------------|
|-----------------------------------------------------------5h6p5h6p5|
|-----------------------6h7p6h7p6-----------------6h7p6h7p6----------|
|-------6h7p6h7p6-----------------------6h7p6h7p6--------------------|
|-4-444-----------4-444-----------4-444------------------------------|
|--------------------------------------------------------------------|
  . ...           . ...           . ...

|-------------------------------------------------------------------|
|-------------------------------------------------------------------|
|-----------------------6h7p6h7p6-----------------------------------|
|-------6h7p6h7p6-----------------------6h7p6h7p6--7--7-------------|
|-4-444-----------4-444-----------4-444------------5--5-------------|
|--------------------------------------------------5--5-------------|
  . ...           . ...           . ...                     (2 times)

Play Riff 2 one time
Play Fill 1 one time then:

Riff 7
Gtr 1
|-------------------------------------------------------------------|
|--------------------------------------------------------5----------|
|-------------------6------------------------------6-------6--------|
|----4---5------4-----4---5---------4---5------4-----4-------5------|
|----------4----------------4-------------4-------------------------|
|-22---2-----22---2-----2-----2--22---2-----22---2-----2------------|
  ..   .     ..   .     .        ..   .     ..   .     .

Gtr 2
|-------------------------------------------------------------------|
|-------------------------------------------------------------------|
|-------------------------------------------------------------------|
|----------------------------------9/x------------------------------|
|----------------------------------7/x------------------------------|
|-22222-2222------------22222-222--7/x------------------------------|
  ..... ....            ..... ...                          (2 times)

Riff 8
|-------------------------------------------------------------------|
|-------------------------------------------------------------------|
|-------------------------------------------------------------------|
|--------------------5/x------------------9/x-----------------------|
|--------------------3/x------------------7/x-----------------------|
|-222222222-2222222--------222222222-2222-7/x-----------------------|
  ......... .......        ......... ....

Gtr 1 plays Riff 1 2 times
Gtr 2 plays Riff 8 2 times

Play Riff 6a 2 times then
Play Riff 6b 1 time

Riff 6c
Gtr 1
|-----------------------------------------------------------4h5p4h5p4-|
|-----------------------5h6p5h6p5-----------------5h6p5h6p5-----------|
|-------6h7p6h7p6-----------------------6h7p6h7p6---------------------|
|---------------------------------------------------------------------|
|-4-444-----------4-444-----------4-444-------------------------------|
|---------------------------------------------------------------------|
  . ...           . ...           . ...

|-----------------------------------------------------------4h5p4h5p4-|
|-----------------------5h6p5h6p5-----------------5h6p5h6p5-----------|
|-------6h7p6h7p6-----------------------6h7p6h7p6---------------------|
|---------------------------------------------------------------------|
|-4-444-----------4-444-----------4-444-------------------------------|
|---------------------------------------------------------------------|
  . ...           . ...           . ...

Gtr 2
|---------------------------------------------------------------------|
|-----------------------------------------------------------5h6p5h6p5-|
|-----------------------6h7p6h7p6-----------------6h7p6h7p6-----------|
|-------6h7p6h7p6-----------------------6h7p6h7p6---------------------|
|-4-444-----------4-444-----------4-444-------------------------------|
|---------------------------------------------------------------------|
  . ...           . ...           . ...

|---------------------------------------------------------------------|
|-----------------------------------------------------------5h6p5h6p5-|
|-----------------------6h7p6h7p6-----------------6h7p6h7p6-----------|
|-------6h7p6h7p6-----------------------6h7p6h7p6---------------------|
|-4-444-----------4-444-----------4-444-------------------------------|
|---------------------------------------------------------------------|
  . ...           . ...           . ...

End note
|-------------------------------------------------------------------|
|-------------------------------------------------------------------|
|--6----------------------------------------------------------------|
|--6----------------------------------------------------------------|
|--4----------------------------------------------------------------|
|-------------------------------------------------------------------|




4. Vredesbyrd

Tunning E A D G B E
Note:I only have the rythym guitar for this.
Also.  Make sure you look at those stars at the end of the tune for details.
This tune can get somewhat get complicating.
Riff#1(a).Fast..picking=up and down stroking.
|-------------------------------------|
|-------------------------------------|
|-------------------------------------|
|-------------------------------------|
|----------------4----1111111-2-34-3-|
|1111111111111111-------------0-12-1-|
 ................*     ......
Riff#1(b).Same as riff 1, except where not.Just letting the two notes ring.4 and 1.
|-------------------------------------|
|-------------------------------------|
|-------------------------------------|
|-------------------------------------|
|----------------4----1-------2-34-3-|
|1111111111111111-------------0-12-1-|
 ................                   *

Riff#2.  Heavy.
|------------------------------------------|
|------------------------------------------|
|------------------------------------------|
|------------------------------------------|
|-------24-------2-4----1-1-1-1-1-2-34-3-|
|1-1-1-1---1-1-1-1-1---------------0-12-1-|
 . . . .     . . . .       . . . .
Riff#3. Heavy.Slow.
|---------------------------------------|
|---------------------------------------|
|---------------------------------------|
|5----7-6-8-5--8--7-8--5----7-6-8--4--6-|
|3----5-4-6-3--6--5-6--3----5-4-6--2--4-|
|3----5-4-6-3--6--5-6--3----5-4-6--2--4-|
      . . . .     . .       . . .
Transition A. Slow.
|-------------------|
|-------------------|
|-------------------| Repeat Riff #3.
|-------------------|
|3------------2---6-|
|-------------------|
Transition B. up and down picking.
|------------------------------------|
|------------------------------------|
|------------------------------------|
|------------------------------------|
|------------------------------------|
|0-0-0-0-0-0-0-0-0-0-0-0-0-0-0-0-12/3|
 . . . . . . . . . . . . . . . .
Riff#4. Slightly Fast.
|-------------------------------------------------------|--------------------------------|
|-------------------------------------------------------|--------------------------------|
|-------------------------------------------------------|--------------------------------|
|------------9-----------------------9-109-8-----------4|----------5----------78-78-78|
|2-----------7-----------2-----------7-8-7-6-----------2|----------3----------56-56-56|
|0-0-0-0-0-0---0-0-0-0-0-0-0-0-0-0-0---------0-0-0-0-0--|0-0-0-0-0---0-0-0-0-0-----------|
   . . . . .   . . . . .   . . . . .         . . . . .

Riff#4, continued.
Fill 1.
|-------------------------------------| |---|
|-------------------------------------| |---|
|-------------------------------------| |---|
|------------5------------------------| |---|Stop.  Drum Roll. Repeat Riff#3.
|------------3-3-3-3-3-3-3------------| |-2-|
|3-3-3-3-3-3---------------1-1-1-1-1-1| |-0-|
 . . . . . .   . . . . . . . . . . . .
Riff#5.Fast where bunched notes are of course.
|---------------------------------------------------------------------------|
|---------------------------------------------------------------------------|
|---------------------------------------------------------------------------|
|----------------------------------7---7------------------------------------|
|4--444444--4--444444--4--444444-55--55--4--444444-4-444444-----6-6-----5-5-|
|-----------------------------------------------------------44444-4-33333-3-|
 .  ......  .  ......  .  ...... ..  ..  .  ...... . ...... ....    ....

Riff #6.Fast.
|--------------------------------------------------------|              |---|----------------|
|--------------------------------------------------------|              |---|----------------|
|--------------------------------------------------------|              |---|----------------|
|--------------------------------------------------------|Repeat Riff#5.|---|----------------|
|7777777777777777888888887777777777777777----------------|              |-2-|-----3-3-3-3-3-3|
|----------------------------------------7777777766666666|              |-0-|-----1-1-1-1-1-1|
 ........................................................
Repeat Riff#1 and start at the * where note "4" is.                                  . . . . . .
Repeat Riff#1b, and
the last part of the riff where the 2nd * is in Riff#1 b. Continue with this:

|--------|
|--------|
|--------|
|--------|
|3-3-3-3-|
|1-1-1-1-|
 . . . .
End Riff.



5. For The World To Dictate Our Death

Tunning E A D G B E


Intro
|-------------------------------------------------------------------|
|-------------------------------------------------------------------|
|-------------------------------------------------------------------|
|-6---6-5-6---6-7-7-6---6-5-5---------------------------------------|
|-6---6-5-6---6-7-7-6---6-5-3-----5-7-------------------------------|
|-4---4-3-4---4-5-5-4---4-3-3-----3-5-------------------------------|
                                  . .
Riff 1a
Gtr 1
|-------------------------------------------------------------------|
|-------------------------------------------------------------------|
|------------------888888-777777-------------------888888-999999----|
|---------666-999-------------------------666-999-------------------|
|-----666-----------------------------666---------------------------|
|-444-----------------------------444-------------------------------|

|-------------------------------------------------------------------|
|-------------------------------------------------------------------|
|------------------888888-777777------------------------------------|
|---------666-999-------------------5-------------------------------|
|-----666---------------------------3--5-7--------------------------|
|-444-------------------------------3--3-5--------------------------|
                                       . .

Gtr 2
|-------------------------------------------------------------------|
|-------------------------------------------------------------------|
|-------------------------------------------------------------------|
|---------666---------------------------666-------------------------|
|-----666--------666666-555555------666--------666666-777777--------|
|-444---------44----------------444---------44----------------------|

|-------------------------------------------------------------------|
|-------------------------------------------------------------------|
|-------------------------------------------------------------------|
|---------666------------------------5------------------------------|
|-----666--------666666-555555-------3--5-7-------------------------|
|-444---------44---------------------3--3-5-------------------------|
                                        . .                  (2 times)

Riff 1b
Gtr 1
|-------------------------------------------------------------------|
|-------------------------------------------------------------------|
|-----------8-7h8p7h8p7------------8-9p8h9p8------------------------|
|-----6--9-------------------6--9-----------------------------------|
|---6----------------------6----------------------------------------|
|-4----------------------4------------------------------------------|
  . . .  .               . . .  .

|-------------------------------------------------------------------|
|-------------------------------------------------------------------|
|-----------8-7h8p7h8p7---------------------------------------------|
|-----6--9---------------------5------------------------------------|
|---6--------------------------3--5-7-------------------------------|
|-4----------------------------3--3-5-------------------------------|
  . . .  .                        . .

Gtr 2
|-------------------------------------------------------------------|
|-------------------------------------------------------------------|
|-------------------------------------------------------------------|
|-----6----------------------6--------------------------------------|
|---6-----6--5h6p5h6p5-----6-----6--7p6h7p6-------------------------|
|-4-----4----------------4-----4------------------------------------|
  . . . .                . . . .

|-------------------------------------------------------------------|
|-------------------------------------------------------------------|
|-------------------------------------------------------------------|
|-----6------------------------5------------------------------------|
|---4-----6--5h6p5h6p5---------3--5-7-------------------------------|
|-4-----4----------------------3--3-5-------------------------------|
  . . . .                         . .                      (2 times)

Riff 1c
Gtr 1
|-------------------------------------------------------------------|
|-------------------------------------------------------------------|
|------------------8-8-8-8-7-7-7-7-------------------8-8-8-8-9-9-9-9|
|-----6-6-----9-9------------------------6-6-----9-9----------------|
|-------------------------------------------------------------------|
|-4-4-----4-4------------------------4-4-----4-4--------------------|
  . . . . . . . .  . . . . . . . .   . . . . . . . . . . . . . . . .

|-------------------------------------------------------------------|
|-------------------------------------------------------------------|
|------------------8-8-8-8-7-7-7-7----------------------------------|
|-----6-6-----9-9----------------------5----------------------------|
|--------------------------------------3--5-7-----------------------|
|-4-4-----4-4--------------------------3--3-5-----------------------|
  . . . . . . . .  . . . . . . . .        . .

Gtr 2
|-------------------------------------------------------------------|
|-------------------------------------------------------------------|
|-------------------------------------------------------------------|
|---------6-6-------------------------------6-6---------------------|
|-----6-6---------6-6-6-6-5-5-5-5-------6-6---------6-6-6-6-7-7-7-7-|
|-4-4---------4-4-------------------4-4---------4-4-----------------|
  . . . . . . . . . . . . . . . .   . . . . . . . . . . . . . . . .

|-------------------------------------------------------------------|
|-------------------------------------------------------------------|
|-------------------------------------------------------------------|
|---------6-6---------------------------5---------------------------|
|-----6-6---------6-6-6-6-5-5-5-5-------3--5-7----------------------|
|-4-4---------4-4-----------------------3--3-5----------------------|
  . . . . . . . . . . . . . . . .          . .             (2 times)


Riff 2
Gtr 1
|-------------------------------------------------------------------|
|-------------------------------------------------------------------|
|-------------------------------------------------------------------|
|-7-7-7--6--7-7-7--3------7-7-7--6--7-7-7----3~---------------------|
|-5-5-5--4--5-5-5----4~---5-5-5--4--5-5-5--4------------------------|
|-5-5-5--4--5-5-5---------5-5-5--4--5-5-5---------------------------|
  . . .     . . .         . . .     . . .

Gtr 2
|-------------------------------------------------------------------|
|-------------------------------------------------------------------|
|-------------------------------------------------------------------|
|-7-7-7--6--7-7-7--3--6---7-7-7--6--7-7-7--6--3---------------------|
|-5-5-5--4--5-5-5--3--4---5-5-5--4--5-5-5--4--3---------------------|
|-5-5-5--4--5-5-5--1--4---5-5-5--4--5-5-5--4--1---------------------|
  . . .     . . .         . . .     . . .                  (4 times)

Riff 3
Gtr 1
|-------------------------------------------------------------------|
|-------------------------------------------------------------------|
|-------------------------------------------------------------------|
|-5-5-5-5-5-4--5-5-5-5-5-5--1------5-5-5-5-5-4--5-5-5-5-5-5----1~---|
|-3-3-3-3-3-2--3-3-3-3-3-3----2~---3-3-3-3-3-2--3-3-3-3-3-3--2------|
|-3-3-3-3-3-2--3-3-3-3-3-3---------3-3-3-3-3-2--3-3-3-3-3-3---------|
  . .   . .    . . .   . .         . .   . .    . . .   . .

Gtr 2
|-------------------------------------------------------------------|
|-------------------------------------------------------------------|
|-------------------------------------------------------------------|
|-5-5-5-5-5-4--5-5-5-5-5-5----1~--5-5-5-5-5-4--5-5-5-5-5-5--1-------|
|-3-3-3-3-3-2--3-3-3-3-3-3--2-----3-3-3-3-3-2--3-3-3-3-3-3----2~----|
|-3-3-3-3-3-2--3-3-3-3-3-3--------3-3-3-3-3-2--3-3-3-3-3-3----------|
  . .   . .    . . .   . .        . .   . .    . . .   . . (2 times)

Riff 4
|-------------------------------------------------------------------|
|-------------------------------------------------------------------|
|-----------------------10-----------------------------10-----------|
|-2------2------2----------9-----2-------4-44-4-3-33-3----9---------|
|-2------2------2------------7---2-------2-22-2-1-11-1------7-------|
|-0-00-0-0-00-0-0-00-0-----------0-00-0--0-00-0-0-00-0--------------|
    .. .   .. .   .. .             .. .    .. .   .. .

|-------------------------------------------------------------------|
|-------------------------------------------------------------------|
|-----------------------10-------------------------10---------------|
|-2------2------2----------9-----2-------4-44-4-3-----9-------------|
|-2------2------2------------7---2-------2-22-2-1-------7-----------|
|-0-00-0-0-00-0-0-00-0-----------0-00-0--0-00-0-0-------------------|
    .. .   .. .   .. .             .. .    .. .          (2 times)

Play Riff 2 1 time
Play Riff 3 1 time
Play Riff 2 1 time
Play Riff 3 1 time

Riff 5
|-------------------------------------------------------------------|
|-------------------------------------------------------------------|
|-------------------------------------------------------------------|
|-5--5-5-5--6-5--5--5-5-5-------4-------5---------------------------|
|-3--3-3-3--6-5--3--3-3-3-------4-------5---------------------------|
|-3--3-3-3--4-3--3--3-3-3--2-22-2--3-33-3---------------------------|
     . .            . .    . ..    . ..                    (2 times)

Riff 6a
Gtr 1
|-------------------------------------------------------------------|
|-------------------------------------------------------------------|
|------------7-10-9-6-----------------------------------------------|
|-7--------7------------6-------------6------6---6--5-4--3----------|
|-5------5--------------4-------------4------4---6--5-4--3----------|
|-5---------------------4--------4-44-4-4-44-4---4--3-2--1----------|
                                 . ..   . ..

Gtr 2
|-------------------------------------------------------------------|
|-------------------------------------------------------------------|
|-------------------------------------------------------------------|
|-7------------3-2------6-------------6------6---6--5-4--3----------|
|-5------5---5-----4----4-------------4------4---6--5-4--3----------|
|-5--------5------------4--------4-44-4-4-44-4---4--3-2--1----------|
                                 . ..   . ..              (2 times)

Play Riff 5 2 times then

Riff 6b
Gtr 1
|-------------------------------------------------------------------|
|-------------------------------------------------------------------|
|--------------------------7-10-9-6---------------------------------|
|-7------7------7--------7------------------------------------------|
|-5------5------5------5--------------------------------------------|
|-5-5555-5-5555-5-5555----------------------------------------------|
    ....   ....   ....

|-------------------------------------------------------------------|
|-------------------------------------------------------------------|
|-------------------------------------------------------------------|
|-6------6------6------6------6----6---6--5-4--3--------------------|
|-4------4------4------4------4----4---6--5-4--3--------------------|
|-4-4444-4-4444-4-4444-4-4444-4-44-4---4--3-2--1--------------------|
    ....   ....   ....   ....   ..

Gtr 2
|-------------------------------------------------------------------|
|-------------------------------------------------------------------|
|-------------------------------------------------------------------|
|-7------7------7------------3-2------------------------------------|
|-5------5------5------5---5-----4----------------------------------|
|-5-5555-5-5555-5-5555---5------------------------------------------|

|-------------------------------------------------------------------|
|-------------------------------------------------------------------|
|-------------------------------------------------------------------|
|-6------6------6------6------6----6---6--5-4--3--------------------|
|-4------4------4------4------4----4---6--5-4--3--------------------|
|-4-4444-4-4444-4-4444-4-4444-4-44-4---4--3-2--1--------------------|

Play Intro 1 time
Play Riff 1a 4 times then

Riff 7
Gtr 1
|--------------------------------------------------------------------|
|--------------------------------------------------------------------|
|-----------------8-8-8-8-7h8p7h8p7-------------------8-8-8-8-9p8h9p8|
|-----6-6-----9-9-------------------------6-6-----9-9----------------|
|--------------------------------------------------------------------|
|-4-4-----4-4-------------------------4-4-----4-4--------------------|
  . . . . . . . . . . . .             . . . . . . . . . . . .

|-------------------------------------------------------------------|
|-------------------------------------------------------------------|
|-----------------8-8-8-8-7h8p7h8p7---------------------------------|
|-----6-6-----9-9--------------------*5-----------------------------|
|-------------------------------------3--5-7------------------------|
|-4-4-----4-4-------------------------3--3-5------------------------|
  . . . . . . . . . . . .                . .

Gtr 2
|-------------------------------------------------------------------|
|-------------------------------------------------------------------|
|-------------------------------------------------------------------|
|---------6-6--------------------------------6-6--------------------|
|-----6-6---------6-6-6-6-5h6p5h6p5------6-6---------6-6-6-6-7p6h7p6|
|-4-4---------4-4--------------------4-4---------4-4----------------|
  . . . . . . . . . . . .            . . . . . . . . . . . .

|-------------------------------------------------------------------|
|-------------------------------------------------------------------|
|-------------------------------------------------------------------|
|---------6-6----------------------------------*5-------------------|
|-----6-6---------6-6-6-6-5h6p5h6p5-------------3--5-7--------------|
|-4-4---------4-4-------------------------------3--3-5--------------|
  . . . . . . . . . . . .          (2 times)       . .
                                               * Ending first time

Ending the second time
|-------------------------------------------------------------------|
|-------------------------------------------------------------------|
|-------------------------------------------------------------------|
|-5-----------------------------------------------------------------|
|-3--5-7-5-6--------------------------------------------------------|
|-3--3-5-3-4--------------------------------------------------------|




6. Blood Hunger Doctrine

Tunning D G C F A D


Intro x 4
Right after it starts fading
|-----------------------------------|
|-----------------------------------|
|--9--9--9--9--9---9---12----12-11--|
|---9--9--9--9--12--12-12----12-12--|
|---7--7--7--7----------------------|
|-----------------------------------|

|-----------------------------------|
|-----------------------------------|
|--9--9--9--9--9---9---12----12-14--|
|---9--9--9--9--12--12-12----12-12--|
|---7--7--7--7----------------------|
|-----------------------------------|

-------------------------------------

|---------------------------------|
|---------------------------------|
|---------------------------------|
|-2---/7--5-4-4-2-2---/7---5---7--|
|-2---/7--5-4-4-2-2---/7---5---7--|
|-0---/5--3-2-2-0-0---/5---3---5--|

|---------------------------------------------------|
|---------------------------------------------------|
|---------------------------------------------------|
|-2---/7--5-4-4-2-2---------------------------------|
|-2---/7--5-4-4-2-2---222--222-222-2--5-4-4-2-2-----|
|-0---/5--3-2-2-0-0---000--000-000-0--3-2-2-0-0-----|
                      ...  ... ..  .  . . . . .

Chorus x4 (follow the bass drum when palm muting)
|-----------------------------------------|
|-----------------------------------------|
|-----------------------------------------|
|----------------------7---5-4-2-0-2------|
|-2-2-2-2-22-2-2-2-22--7---5-4-2-0-2------|
|-0-0-0-0-00-0-0-0-00--5---3-2-0-0-0------|
  . . . . .. . . . ..

|-----------------------------------------|
|-----------------------------------------|
|-----------------------------------------|
|----------------------7---5---7----------|
|-2-2-2-2-22-2-2-2-22--7---5---7----------|
|-0-0-0-0-00-0-0-0-00--5---3---5----------|
  . . . . .. . . . ..


Middle section (before the actual riff, just damp D like this)
|----------|
|----------|
|----------|
|----------|
|-2-2--2-2-|
|-0-0--0-0-|
  . .  . .

Middle riff
|-------------------------------------|
|-------------------------------6-----|
|---------------------6(6)-5(5)--5----| Gtr I
|-------------5-2---------------------|
|-2-2-2-2-2-2-5-2-1-------------------|
|-0-0-0-0-0-0-3-----0-----------------|
|   . . . . .       .   .    .
|
|-------------------------------------|
|-------------------------------6-----|
|---------------------6(6)-5(5)--5----| Gtr II
|-------------/9-9(8)-----------------|
|-2-2-2-2-2---/9-9(8)-----------------|
|-0-0-0-0-0-0-/7-7(6)-----------------|
    . . . .             .    .

|-------------------------------------|
|-------------------------------------|
|-----------------5-------------------| Gtr I
|-------------5-2-5-------5-4-2-------|
|-2-2-2-2-2-2-5-2---3-3-3--3-3--------|
|-0-0-0-0-0-0-3-----------------------|
|   . . . . .       . . .  . .
|
|-------------------------------------|
|-------------------------------------|
|-----------------5-------------------| Gtr II
|------------/9-9-5-------5-4-2-------|
|-2-2-2-2-2-2/9-9-3-3-3-3--3-3--------|
|-0-0-0-0-0-0/7-7---------------------|
|   . . . .         . . .  . .


At 3:12
|----------------|
|----------------|
|----------------|
|----------------|
|-5-5-5-4-4-4-2--|
|-3-3-3-2-2-2-0--|
  . . . . . . .



7. Allehelgens Dod I Helveds Rike

Tunning E A D G B E

Riff 1a
|-------------------------------------------------------------------|
|-------------------------------------------------------------------|
|-------------------------------------------------------------------|
|---------------------------------555-4-----2-----------------------|
|-------22222-------33333---------------111-------------------------|
|-00000-------00000-------00000-------------------------------------|


|-------------------------------------------------------------------|
|-------------------------------------------------5-----5-----------|
|-----------------------------------------------3-----3-------------|
|---------------------------------555-4-----2-2-----2---------------|
|-------22222-------33333---------------111-------------------------|
|-00000-------00000-------00000-------------------------------------|
                                                           (2 times)
Gtr 1 continues to play riff 1a while gtr 2 plays:

Riff 1b
|-------------------------------------------------------------------|
|-------------------------------------------------------------------|
|-------------------------------------------------------------------|
|-----------------------555-4-----2---------------------------------|
|-2--------2--------2---------111-----------------------------------|
|-0--0000000--0000000-----------------------------------------------|
  .  .......  .......

|-------------------------------------------------------------------|
|-------------------------------------------------------------------|
|-------------------------------------------------------------------|
|-----------------------555-4-----2---------------------------------|
|-2--------2--------2---------111-----------------------------------|
|-0--0000000--0000000-----------------------------------------------|
  .  .......  .......                                      (2 times)

|-------------------------------------------------------------------|
|------5-----5-----------------------5-----5-----5-----5------------|
|----3-----3-----------------------3-----3-----3-----3--------------|
|-*2-----2---------------------**2-----2-----2-----2----------------|
|-------------------------------------------------------------------|
|-------------------------------------------------------------------|
  * ending the first time      ** ending the second time

Riff 2a
|-------------------------------------------------------------------|
|-------------------------------------------------------------------|
|-11--11--10---------"11--"8----------------------------------------|
|--9---9---8---"12---"11--"8---"11----------------------------------|
|--9---9---8---"10---"-9--"6---"-9----------------------------------|
|-------------------------------------------------------------------|
                                                           (6






Like us on Facebook