Progenies Of The Great Apocalypse Bass Tab - Dimmu Borgir






Artist:Dimmu Borgir
Song: Progenies Of The Great Apocalypse
Tabbed by: K_A_N


This is an awsome song. it is fairly easy to play if u r used to playin this kindof music
There are some fast playing skills needed, some slapping, and some sliding but nothin serious. 
if any questions feel free to contact me K_A_N PM me or send me an email at kan_cbk_@hotmail.com

U can play on a 4 string just tune it down it may sond a little funny but it works
I might come out with a 4 string Version later on but for now u can play with this


K_A_N's special idiots guide to his stupid tab:

/=slide up =slidedown H=hammer (_)=slur [_]=slap POP={_}

TUNING[BEADG]


G:------------------
D:------------------
A:2-2-2-2---2-2-2-2~
E:------------------
B:------------------



G:----------------------------------------------------------------------
D:----------------------------------------------------------------------
A:-----------------------9h-7h-5h-3h------------------------------------
E:---------------------------------------------------------------7-5-3-1
B:3-33-3-33-1-11-1-11-11-------------3-33-3-33-3-33-0-00-00-0-00--------



        slide slowly
G:----------------------------------------
D:----------------------------------------
A:----------------[9]/3-------------------          
E:-----------------------------------[7]/1
B:3333333-11111111---3333333-00000000-----



play when the bassist (you) begins singing the poetic part
"Discover and conceive the secret wealth 
 And pass it unto your breed 
 Become your own congregation 
 Measure the sovereignty of it's invigoration" 
G:---------
D:---------
A:0--------
E:-0-3-----
B:----5-7-8


play this after keyboard when the guitars kick in
G:------------------------------------
D:------------------------------------
A:2-22-222222-2-22-222222-2-22-222222-
E:------------------------------------
B:------------------------------------

G:-----------------
D:-----------------
A:-----------------
E:3-3-33-5-5-5{5}






Like us on Facebook