Puritania (ver2) Bass Tab - Dimmu Borgir






Song: Puritania
Album: Puritanical Euphoric Misanthropia
Band: Dimmu Borgir
Tabbed By: Masterbasser36


Riff 1                           x12
G|------------------------------|
D|------------------------------|
A|------------------------------|
E|------------------------------|
B|-444444444--4-4--4-4--5-5-5---|

Riff 2                                     x4
G|----------------------------------------|
D|----------------------------------------|
A|----------------------------------------|
E|---------------------------------6--5---|
B|-4-4--4-4--4-4--4-41--1-1--1-1---------|

Riff 1                           x12
G|------------------------------|
D|------------------------------|
A|------------------------------|
E|------------------------------|
B|-444444444--4-4--4-4--5-5-5---|

Riff 2                                     x4
G|----------------------------------------|
D|----------------------------------------|
A|----------------------------------------|
E|---------------------------------6--5---|
B|-4-4--4-4--4-4--4-41--1-1--1-1---------|

Riff 1                           x4
G|------------------------------|
D|------------------------------|
A|------------------------------|
E|------------------------------|
B|-444444444--4-4--4-4--5-5-5---|


Just two parts make up this awesome song.
Please Rate!
Comment if you find any mistakes or have any questions.






Like us on Facebook