Puritania Tab - Dimmu Borgir






Dimmu Borgir
Puritania



Tabbed by: Saul antonio
Contact: cuirax@msn.com


Puritania is a very simple song. There are only 2 Riffs. I haven't wrote
down the whole song-structure but the main riffs. Listen to the song and try


Riff 1:

|-------------------------------------------------------|
|-------------------------------------------------------|
|-------------------------------------------------------|
|-----------6--6-6-6-6-5-5-5-----------6--6-6-6-6-5-5-5-|
|-4444-4444-4--4-4-4-4-5-5-5-4444-4444-4--4-4-4-4-5-5-5-|
|-4444-4444-4--4-4-4-4-3-3-3-4444-4444-4--4-4-4-4-3-3-3-|



Riff 2:

|------------------------|
|------------------------|
|------------------------|
|-66-66-66-66-55-55------|
|-44-44-44-44-33-33--6-5-|
|-44-44-44-44-33-33--4-3-|






Like us on Facebook