Satan My Master Bass Tab - Dimmu Borgir






                           SATAN MY MASTER (Bassline)
                           As recorded by Dimmu Borgir
                   (From the 2003 Album DEATH CULT ARMAGEDDON)

Words and Music by Bathory
Arranged by Dimmu Borgir

Gtr I (E A D G) - 'Vortex'

 Intro
  Q=180
 4/4
  Gtr I
  Wx7          H    E. S +S  E.
|------------|------------------|
|------------|------------------|
|------------|------------------|
|------------|------2--2-(2)-4--|


   Main Riff
    S S S S S S S S S S S S Q    S S S S S S S S S S S S Q
||-----------------------------|----------------------------|
||o----------------------------|----------------------------|
||o-------------------------2--|-------------------------1--|
||--1-1-1-1-1-1-1-1-1-1-1-1----|-1-1-1-1-1-1-1-1-1-1-1-1----|


  S S S S S S S S S S S S Q    S S S S S S S S E. S +S  E.
|----------------------------|-------------------------------||
|----------------------------|------------------------------o||
|-------------------------0--|------------------------------o||
|-1-1-1-1-1-1-1-1-1-1-1-1----|-1-1-1-1-1-1-1-1-2--2-(2)-4----||


   Verse
    Q  S S S S S S S S S S S S   Q  S S S S S S S S S S S S
||-----------------------------|----------------------------|
||o----------------------------|----------------------------|
||o----------------------------|----------------------------|
||--2--2-2-2-2-2-2-2-2-2-2-2-2-|-3--3-3-3-3-3-3-3-3-3-3-3-3-|


  Q  S S S S S S S S S S S S   Q  S S S S S S S S S S S S
|----------------------------|-------------------------------||
|----------------------------|------------------------------o||
|----------------------------|------------------------------o||
|-2--2-2-2-2-2-2-2-2-2-2-2-2-|-3--3-3-3-3-3-3-3-3-3-3-3-3----||


   Main Riff
    S S S S S S S S S S S S Q    S S S S S S S S S S S S Q
||-----------------------------|----------------------------|
||o----------------------------|----------------------------|
||o-------------------------2--|-------------------------1--|
||--1-1-1-1-1-1-1-1-1-1-1-1----|-1-1-1-1-1-1-1-1-1-1-1-1----|


  S S S S S S S S S S S S Q    S S S S S S S S E. S +S  E.
|----------------------------|-------------------------------||
|----------------------------|------------------------------o||
|-------------------------0--|------------------------------o||
|-1-1-1-1-1-1-1-1-1-1-1-1----|-1-1-1-1-1-1-1-1-2--2-(2)-4----||


   Verse
    Q  S S S S S S S S S S S S   Q  S S S S S S S S S S S S
||-----------------------------|----------------------------|
||o----------------------------|----------------------------|
||o----------------------------|----------------------------|
||--2--2-2-2-2-2-2-2-2-2-2-2-2-|-3--3-3-3-3-3-3-3-3-3-3-3-3-|


  Q  S S S S S S S S S S S S   Q  S S S S S S S S S S S S
|----------------------------|-------------------------------||
|----------------------------|------------------------------o||
|----------------------------|------------------------------o||
|-2--2-2-2-2-2-2-2-2-2-2-2-2-|-3--3-3-3-3-3-3-3-3-3-3-3-3----||


   Pre-Solo
    E S S S S S S E S S S S S S   E S S S S S S E S S S S S S  4x
||------------------------------|------------------------------||
||o-----------------------------|-----------------------------o||
||o-----------------------------|-----------------------------o||
||--1-1-1-1-1-1-1-2-2-2-2-2-2-2-|-3-3-3-3-3-3-3-4-4-4-4-4-4-4--||


  E S S S S S S E S S S S S S   E S S S S S S E S S S S S S   H.      E E
|-----------------------------|-----------------------------|---------------|
|-----------------------------|-----------------------------|---------------|
|-----------------------------|-----------------------------|-3-------1-3---|
|-1-1-1-1-1-1-1-2-2-2-2-2-2-2-|-3-3-3-3-3-3-3-4-4-4-4-4-4-4-|---------------|


  H.      Q    H.      E E   H.      Q    H.      E E
|------------|-------------|------------|-------------|
|------------|-------------|------------|-------------|
|-4-------4--|-3-------1-3-|-4-------4--|-3-------1-3-|
|------------|-------------|------------|-------------|


  H.      Q    H.      E E   H.      Q    W
|------------|-------------|------------|------|
|------------|-------------|------------|------|
|-4-------4--|-3-------1-3-|-4-------4--|------|
|------------|-------------|------------|-2----|


  S S S S S S S S S S S S Q    S S S S S S S S S S S S Q
|----------------------------|----------------------------|
|----------------------------|----------------------------|
|-------------------------2--|-------------------------1--|
|-1-1-1-1-1-1-1-1-1-1-1-1----|-1-1-1-1-1-1-1-1-1-1-1-1----|


  S S S S S S S S S S S S Q    S S S S S S S S E. S +S  E.
|----------------------------|-----------------------------|
|----------------------------|-----------------------------|
|-------------------------0--|-----------------------------|
|-1-1-1-1-1-1-1-1-1-1-1-1----|-1-1-1-1-1-1-1-1-2--2-(2)-4--|


   Verse
    Q  S S S S S S S S S S S S   Q  S S S S S S S S S S S S
||-----------------------------|----------------------------|
||o----------------------------|----------------------------|
||o----------------------------|----------------------------|
||--2--2-2-2-2-2-2-2-2-2-2-2-2-|-3--3-3-3-3-3-3-3-3-3-3-3-3-|


  Q  S S S S S S S S S S S S   Q  S S S S S S S S S S S S
|----------------------------|-------------------------------||
|----------------------------|------------------------------o||
|----------------------------|------------------------------o||
|-2--2-2-2-2-2-2-2-2-2-2-2-2-|-3--3-3-3-3-3-3-3-3-3-3-3-3----||


   Outro
    S S S S S S S S S S S S Q    S S S S S S S S S S S S Q
||-----------------------------|----------------------------|
||o----------------------------|----------------------------|
||o-------------------------2--|-------------------------1--|
||--1-1-1-1-1-1-1-1-1-1-1-1----|-1-1-1-1-1-1-1-1-1-1-1-1----|


  S S S S S S S S S S S S Q    S S S S S S S S E. S +S  E.     3x
|----------------------------|---------------------------------||
|----------------------------|--------------------------------o||
|-------------------------0--|--------------------------------o||
|-1-1-1-1-1-1-1-1-1-1-1-1----|-1-1-1-1-1-1-1-1-2--2-(2)-4------||


  S S S S S S S S S S S S Q    S S S S S S S S S S S S Q
|----------------------------|----------------------------|
|----------------------------|----------------------------|
|-------------------------2--|-------------------------1--|
|-1-1-1-1-1-1-1-1-1-1-1-1----|-1-1-1-1-1-1-1-1-1-1-1-1----|


                                                             Q=50
  S S S S S S S S S S S S Q    S S S S S S S S E. S +S  E.   W
|----------------------------|-----------------------------|------*|
|----------------------------|-----------------------------|------*|
|-------------------------0--|-----------------------------|------*|
|-1-1-1-1-1-1-1-1-1-1-1-1----|-1-1-1-1-1-1-1-1-2--2-(2)-4--|-1----*|


Duration Legend
---------------
W - whole; H - half; Q - quarter; E - 8th; S - 16th; T - 32nd; X - 64th; a - acciaccatura
+ - note tied to previous; . - note dotted; .. - note double dotted
Uncapitalized letters represent notes that are staccato (1/2 duration)
Irregular groupings are notated above the duration line
Duration letters will always appear directly above the note/fret number it represents the
duration for.  Duration letters with no fret number below them represent rests.  Multi-
bar rests are notated in the form Wxn, where n is the number of bars to rest for.  Low
melody durations appear below the staff

Tablature Legend
----------------
 h   - hammer-on
 p   - pull-off
 b   - bend
 pb  - pre-bend
 r   - bend release (if no number after the r, then release immediately)
 /  - slide into or out of (from/to "nowhere")
 s   - legato slide
 S   - shift slide
  - natural harmonic
[n]  - artificial harmonic
n(n) - tapped harmonic
 ~   - vibrato
 tr  - trill
 T   - tap
 TP  - trem. picking
 PM  - palm muting
n/  - tremolo bar dip; n = amount to dip
 n  - tremolo bar down
 n/  - tremolo bar up
/n  - tremolo bar inverted dip
 =   - hold bend; also acts as connecting device for hammers/pulls
   - volume swell (louder/softer)
 x   - on rhythm slash represents muted slash
 o   - on rhythm slash represents single note slash

Misc Legend
-----------
 |  - bar
||  - double bar
||o - repeat start
o|| - repeat end
*|  - double bar (ending)
 :  - bar (freetime)
 $  - Segno
 &  - Coda
Tempo markers -  = BPM(8/16=s8/s16), where s8 = swing 8ths, s16 = swing 16ths






Like us on Facebook