Vredesbyrd (ver3) Tab - Dimmu Borgir






Vredesbyrd by Dimmu Borgir
moderately easy and yet again fun to play
Tuning is Standard

Riff A Sileno%
|------------------------------------------------------------------------------|
|------------------------------------------------------------------------------|
|------------------------------------------------------------------------------|
|------------------------------------------------------------------------------|
|--------------------------------444444444444444444444444-1111111111111111-----|
|-111111111111111111111111111111-------------------------------------------2~~-|

Galder plays
|------------------------------------------------------------------------------|
|------------------------------------------------------------------------------|
|------------------------------------------------------------------------------|
|------------------------------------------------------------------------------|
|--------------------------------10^-----------------------9^------------------|
|-111111111111111111111111111111-------------------------------------------2~~-|


After you play that Galder plays this Riff A.2
|---------------------------------|-----4---------------------------|
|-----9---9-----------9---9-------|---------6---------------2-1---1-|
|---6---6---7---7---6---6---7---7-|-------6---6---6-----3-----------|
|-------------6---------------6---|---6---------6-----3---3-----3---|
|-8---------------8---------------|-4---------------1---------------|
|---------------------------------|---------------------------------|

And Riff A is playes 4 frets higher

Then Both Play Riff A.3
|-----------------------------------------------------------|
|-----------------------------------------------------------|
|-----------------------------------------------------------|
|-----------------------------------------------3-----------|
|-3----------1-4-3--------3---3---3/4-4-4-4-4-4-1-1-1-1-----|
|-1--1-1-1-1-----1--1-1-1-1-1-1-------------------------2~--|


Riff B both
|------------------------------|------------------------|------------------------|
|------------------------------|------------------------|------------------------|
|------------------------------|------------------------|------------------------|
|---------------------6x-------|------------------------|------------------------|
|-3-------8-7x-8-7x---4x-------|-3-------8-6-8----4---8-|-3-------8-7-8----4---5-|
|-1-------6-5x-6-5x-------6-5x-|-1-------6-5-6----2---6-|-1-------6-5-6----2---3-|

Riff B.2
|-----------------------------|--------------------------|
|-----------------------------|--------------------------|
|-4---------------------------|-3------------------------|
|-3----------------------7-8--|-3--------------------4-5-|
|-1-------------------1--7-8--|-1--------------------4-5-|
|------------------------5-6--|----------------------2-3-|

Pre Chorus Crap
|----------------------------------|
|----------------------------------|
|----------------------------------|
|----------------------------------|
|-2------2------2------2-----2222--|
|-0-0000-0-0000-0-0000-0-00000000--|

Chorus Riff
|----------------------------------------------------------------|-------------------|-----|
|----------------------------------------------------------------|-------------------|-----|
|-4--------6--------5--------5-6-5-4-----------------------------|-------------------|-----|
|-4--------6--------5--------5-6-5-4--------3--------64-64-64-|-------------------|--3--|
|-2--------4--------3--------3-4-3-2--------1--------42-42-42-|-------------------|--3--|
|---000000---000000---000000---------000000---333333-------------|-5-2-0-5-2-0-5-2-0-|--1--|
    ......   ......   ......         ......   ......               . . . . . . . . .

Repeat Riff B


Riff C                                                 This is After Just Listen
|---------------------------------------------------|-----------|-------------------------|
|-----------------------------------------5---5-----|-----------|-------------------------|
|-------------------------------------------5---5---|-----------|-------------------------|
|-------------------------------------5-------------|-6----5----|-5-6-7-6-7-6-4-5-6-5-6-5-|
|-6--6-66666--6--6-66666--6--6-66666--5-5---------5-|-6----5----|-3-4-5-4-5-4-2-3-4-3-4-3-|
|-4--4-44444--4--4-44444--4--4-44444--5-------------|-4----3----|-------------------------|

Sonn Sileno% plays this
|------------------------------------------------|
|------------------------------------------------|
|---------------------------------------6-----5--|
|---------------------------------------6-----5--|
|-8--8-888888--8--8-888888--8--8-888888-4-----3--|
|-6--6-666666--6--6-666666--6--6-666666----------|

And Galder Backs with this
|-------------------------|----|-------------|
|-------------------------|----|-------------|
|-------------------------|----|-------------|
|-------------------------|-5--|-------------|
|-------------------------|-5--|-5-5-5-5-5-5-|
|-4"--6-4-6-4-3"--5-3-5-3-|-3--|-3-3-3-3-3-3-|

then They Repeat Riff A
And Soon Galder plays the Riff A.2






Like us on Facebook