Vredesbyrd Bass Tab - Dimmu Borgir






                      ________________________________
                 --==   Dimmu Borgir - Vredesbyrd    ==--
                     `````````````````

                          Verse 1
G|-------------------|-------------------|-------------------|-------------------|
D|-------------------|-------------------|-------------------|-------------------|
A|-------------------|-------------------|4444-4444-4444-4444|1111-1111-1111-----|
E|1111-1111-1111-1111|1111-1111-1111-1111|-------------------|---------------2222|
 
                         Verse 2
G|-------------------|-------------------|-------------------|-------------------|
D|-------------------|-------------------|-------------------|-------------------|
A|-------------------|-------------------|--4-4-4-4-4-4-4-4--|--1-1-1-1-1-1------|
E|--1-1-1-1-1-1-1-1--|--1-1-1-1-1-1-1-1--|-------------------|--------------2-2--|
 
                         Verse 3
G|-------------------|-------------------|-------------------|-------------------|
D|-------------------|-------------------|-------------------|-------------------|
A|-------------------|------4------------|-------------------|-------------------|
E|-3-----(3)-6--5--6-|-5---------5----6--|--3-----6---5---6--|---2------------6--|
ring|------|
                         Verse 4
G|-------------------|-------------------|-------------------|-------------------|
D|-------------------|-------------------|-------------------|-------------------|
A|-------------------|------4------------|-------------------|-------------------|
E|-3-----(3)-6--5--6-|-5---------5----6--|--3-----6---5---6--|---2------------4--|
ring|------|
                        Verse 5
G|-------------------|-------------------|-------------------|-------------------|
D|-------------------|-------------------|-------------------|-------------------|
A|-------------------|-------------------|-------------------|-------------------|
E|-3-----------------|-------------------|------(3)----------|---2------------6--|
ring|---------------------------------------------|
                         Verse 6
G|-------------------|-------------------|-------------------|-------------------|
D|-------------------|-------------------|-------------------|-------------------|
A|-------------------|-------------------|-------------------|-------------------|
E|-3-----------------|-------------------|------(3)----------|---2------------4--|
ring|---------------------------------------------|
                       Breakdown
G|-------------------|-------------------|-------------------|
D|-------------------|-------------------|-------------------|
A|-------------------|-------------------|------------12/3---|
E|0000-0000-0000-0000|0000-0000-0000-0000|0000-0000----------|

                     Verse 7
G|----------------|----------------|----------------|---------|
D|----------------|----------------|----------------|---------|
A|----------------|----------------|----------------|---------|
E|-0--00--00--00--|-7--00--00--00--|-0--00--00--00--|--7-8-7--|
   8x |__________| 8x |__________|  8x |__________|    | | |
  note  16x note   note   16x note  note   16x note  play the notes long

                    Verse 8
G|----------------|----------------|----------------|--------------|
D|----------------|----------------|----------------|--------------|
A|----------------|----------------|----------------|-6/5--6/5--6/5|
E|-6--00--00--00--|-2--00--00--00--|-3--00--00--00--|--------------|
   8x |__________| 8x |__________|  8x |__________|    
  note  16x note   note   16x note  note   16x note  

                    Verse 9
G|----------------|----------------|----------------|--------------|
D|----------------|----------------|----------------|--------------|
A|----------------|----------------|----------------|--------------|
E|-6--00--00--00--|-2--00--00--00--|-3--33--33--33--|-111-3--114-3-|
   8x |__________| 8x |__________|  8x |__________|   
  note  16x note   note   16x note  note   16x note  

Verse 10
G|---|
D|---|
A|---|
E|-0-|

                         Verse 11
G|-------------------------|----------------------------|
D|O-----------------------7|------------------666-5555-O|
A|O---------------------7--|---------------------------O|
E|--4-444-4-444-4-444-5----|-4-444-4-444-4-444----------|

                        Verse 12
G|-------------------------|----------------------------|
D|O-----------------------3|---------------------------O|
A|O---------------------3--|------------------222-1111-O|
E|--0-000-0-000-0-000-1----|-0-000-0-000-0-00-----------|


                      Verse 13
G|----------------|-------------------|-------------------|-------------------|
D|----------------|-------------------|-------------------|-------------------|
A|----------------|-------------------|4444-4444-4444-4444|1111-1111-1111-----|
E|1-1-1-1-1-1-1-1-|1111-1111-1111-1111|-------------------|---------------2222|



Ending
G|---------------|
D|---------------|
A|---------------|
E|--1-1-1-1------|






Like us on Facebook