321 Tab - Disciple




Tuning: CGCFAD
Note: I edited this all in notepad, so if tab is screwed up here, I can't change that.

 / slide up
  slide down
 ~ tremolo
 * tremolo picking
 h hammer-on
 p pull-off
 b bend
the timing of the riff is above each bar

0:00|1:04|1:37|2:20|2:52|3:28               [1]     [2]
D|-----------------------------------------|-------|--------------|
A|-------------------/3b-------------------|-/5-3--|--------------|
F|-------------------/3b-------------------|-/5-3--|--------------|
C|-----------------------------------------|-/5-3--|---10--------|
G|-----------------------------------------|-------|---10--------|
C|--555-3--/555-3-------555-3--/555-3--|-------|---10--------|

(Chorus)0:11|1:15|2:31|3:49                                      [1]       [2]
|---------------------------------------------------------------|---------|---------|
|--------------3p0---------------5-3---------------3p0----------|-----3-0-|-----5-3-|
|--------------3p0---------------5-3---------------3p0----------|-----3-0-|-----5-3-|
|---3-4-5--35-------3--4--5--35-------3--4--5--35-------3--4--5-|-10-----|-35------|
|---3-4-5--35-------3--4--5--35-------3--4--5--35-------3--4--5-|-10-----|-35------|
|---3-4-5--35-------3--4--5--35-------3--4--5--35-------3--4--5-|-10-----|-35------|
      {PM} ..                ..                ..                           ..

0:34|1:48               End  Gtr.1             Gtr.2
|------------------------|--------------   |-------------|
|-----------------3------|--------------   |-------------|
|--5-3p5-3--0-----3------|--------------   |--------3h5--|
|--5-3p5-3--0--35---53---|--3---3-0-/5--   |--3-----3h5--|
|--------------35---53---|--3---3-0-/5--   |--3----------|
|--------------35---53---|--3---3-0-/5--   |--3----------|
       {PM}    ..   ..          . .

(Verse)0:45|2:00
|---------------------------------------------------|
|---------------------3b---------------------3b-----|
|---------------------3b-0--5----------------3b-0---|
|---5-3---------------------5-3---------3-5---------|
|-------5-3--5-3----------------5-3-5-3-------------|
|----------------6-5--------------------------------|
{PM}. . . .  . . . .            . . . . . .

|---------------------------------------------------|
|---------------------3b----/3--6------------3b-----|
|---------------------3b-0--/3-----5--3------3b-0---|
|---5-3----------------------------------5b---------|
|-------5-3--5-3------------------------------------|
|----------------6-5--------------------------------|
{PM}. . . .  . . . .

|------------------------------------------------|
|---------------------3b--------------------3b---|
|---------------------3b-0--5---------------3b-0-|
|--/5-3---------------------5-3---------3-5------|
|-------5-3--5-3----------------5-3-5-3----------|
|----------------6-5-----------------------------|
{PM}  . . .  . . . .            . . . . . .

|--------------------------------|
|---------------------3b----6b---|
|---------------------3b-0--4b---|
|---5-3--------------------------|
|-------5-3--5-3-----------------|
|----------------6-5-------------|
{PM}. . . .  . . . .

Second verse is played only slightly differntly, so I will not tab it.

(Solo)3:03
|----------------------------------------------------------------|
|-----------88---88---88---88-----------88---88---88---88---777--|
|--/10---5h77-5h77-5h77-5h77-5h7-5h7-5h77-5h77-5h77-5h77-5h777--|
|--/8-----------------------------------------------------------|
|----------------------------------------------------------------|
|----------------------------------------------------------------|

|------------------------------------------------------------|
|------------------------------------------------------------|
|---5h7-0-0-0-4h5-0-0-5h7-0-3-0-4h5-0-0-5b-------------------|
|------------------------------------------5-3---------------|
|----------------------------------------------3/---53

ĂŽnscrie-te la newsletter


Join the ranks ! LIKE us on Facebook