After The Word (ver2) Tab - Disciple




Band / Artist : Disciple
Song title : After The World
Album / Cd : Scars Remain
Standard Tunning

Sorry I had to edit the tab
I did it on Microsoft Word and it cut out at the bottom.

I don't think I've done all of the song, but its mostly there. Enjoy
The Chords used in this are:

:Acoustic:
Verse: 
 Bm   A   D 8x
|-2-|-0-|-2-|
|-3-|-2-|-3-|
|-4-|-2-|-2-|
|-4-|-2-|-0-|
|-2-|-0-|-x-|
|-x-|-x-|-x-|
Chorus:
  D   A    ?   Bm  D   A   2x
|-2-|-0-|-53|-2-|-2-|-0-|
|-3-|-2-|-53|-3-|-3-|-2-|
|-2-|-2-|-64|-4-|-2-|-2-|
|-0-|-2-|-75|-4-|-0-|-2-|
|-x-|-0-|-xx|-2-|-x-|-0-|
|-x-|-x-|-xx|-x-|-x-|-x-|

Bridge:
  D   A   Bm  2x
|-2-|-0-|-2-|
|-3-|-2-|-3-|
|-2-|-2-|-4-|
|-0-|-2-|-4-|
|-x-|-x-|-2-|
|-x-|-x-|-x-|

Verse: (Acoustic)
e|--2----0----2--------------------------------------|
B|--3----2----3--------------------------------------|
G|--4----2----2--------------------------------------|
D|--4----2----0--------------------------------------|
A|--2----0----x--------------------------------------|
E|--x----x----x--------------------------------------|

Transition: (Electric)

e|---------------------------------------------------|
B|---------------------------------------------------|
G|---------------------------------------------------|
D|-55555555-77777777---------------------------------|
A|-55555555-77777777---------------------------------|
E|-33333333-55555555---------------------------------|

(Acoustic)

e|--2----0----53----2----2----0---------------------|
B|--3----2----53----3----3----2---------------------|
G|--2----2----64----4----2----2---------------------|
D|--0----2----75----4----0----2---------------------|
A|--x----0----x-x----2----x----0---------------------|
E|--x----x----x-x----x----x----x---------------------|

Chorus: (Electric)

e|---------------------------------------------------|
B|---------------------------------------------------|
G|--7------------------------------------------------|
D|--7----7----5----789----5--------------------------|
A|--5----7----5----789----5--------------------------|
E|-------5----3----567----3--------------------------|

Bridge: (Acoustic)

e|--2----0----2--------------------------------------|
B|--3----2----3--------------------------------------|
G|--2----2----4--------------------------------------|
D|--0----2----4--------------------------------------|
A|--x----0----2--------------------------------------|
E|--x----x----x--------------------------------------|

Bridge (Electric)

e|---------------------------------------------------|
B|---------------------------------------------------|
G|---------------------------------------------------|
D|--9999----9xx---5555------5xx----7777--------------|
A|--9999----9xx---5555------5xx----7777--------------|
E|--7777----7xx---3555------3xx----5555--------------|

Ok you'll have to figure out the strumming,

It goes in this order:
Verse
Chorus
Verse
Chorus
Bridge
Chorus
Ending

ĂŽnscrie-te la newsletter


Join the ranks ! LIKE us on Facebook