Face Tab - Disciple




Artist: Disciple
Song: Face
Album: Back Again
tabbed by Alex Miclea (alex_omul@yahoo.Com)

riff1
D--------------------------------------------------------          -------|
A--------------------------------------------------------          -------|
F--------------------------------------------------------          -------|
c-0-2--2--2--3--0-2--2--2--2--0-2--2--2--3--0-2--2--2--2-          -0---5-|
G-0-2--2--2-----0-2--2--2-----0-2--2--2-----0-2--2--2----          -0---5-|
C-0-2--2--2-----0-2--2--2-----0-2--2--2-----0-2--2--2---- end with -0---5-|

riff2
D-------------|
A-------------|
F-------------|
C-7-0--0-0--3-|
G-7-0--0-0--3-|
C-7-0--0-0--3-|

riff3
D-----------------|
A-----------------|
F-----------------|
C-4-2-3-1-4-2-3-1-|
G-4-2-3-1-4-2-3-1-|
C-4-2-3-1-4-2-3-1-|


riff4
D-----------------------------------|
A-----------------------------------|
F-----------------------------------|
c-0-2--2----0-2--2----0-2--2----0-2-|
G-0-2--2----0-2--2----0-2--2----0-2-|
C-0-2--2----0-2--2----0-2--2----0-2-|

riff5
D-----------------------------------|
A-----------------------------------|
F----------5-5--5-------------------|
c-0-2--2---5-5--5---0-0--0---5-5--3-|
G-0-2--2---3-3--3---0-0--0---5-5--3-|
C-0-2--2------------0-0--0---5-5--3-|

lead1
D-------------|
A-------------|
F-------------|
c-2---0--2--3-|
G-------------|
C-------------|


lead2
D-----------------------|
A-----------------------|
F-9----5----7-----------|
c----------------5-5--3-|
G-----------------------|
C-----------------------|

solo
D-----------------------------------------------------------|
A-----------------------------------------------------------|
F-----------------------------------------------------------|
c-7b8---7b8---7b8---7b8---7h8-7h8-7h8-7h8-7h8-7h8-7h8-7h8-7-|
G-----------------------------------------------------------|
C-----------------------------------------------------------|

D----------------------------173#-|
A-218/15h16--16---16---16---------|
F----------------------------------|
c----------------------------------|
G----------------------------------|
C----------------------------------|

D----------------------------------|
A----------------------------------|
F---7---7--7---6---6--6---5---5--5-|
c----------------------------------|
G----------------------------------|
C----------------------------------|

D-----------------------------------------------------------|
A-10-12-10-10-13-10-10-12-10-10-13-10-13-12-10--------------|
F-----------------------------------------------5b7#--------|
c-----------------------------------------------------------|
G-----------------------------------------------------------|
C-----------------------------------------------------------|

Order
guitar1 guitar2
riff1
riff1 lead1
riff2
riff3 lead1
riff4
riff5 lead2
riff1  lead1
riff2
riff3 lead1
riff4
riff5 lead2
riff3   solo
riff4
riff5 lead2
riff1 lead1

The lead guitar and solo parts are played with allot of wah

b - bend
/ - slide up
 - slide down
h - hammer on
# - pinch harmonic

That's it :) comments and suggestions at alex_omul@yahoo.com

ĂŽnscrie-te la newsletter


Join the ranks ! LIKE us on Facebook