My Hell Intro Tab - Disciple




This is as much as I have at this point.  Drop D.  Ill update later.
Guitar 1.

E---------------------------------------------------------------------------|
B-----13-16-----16---18-----18-----18--21-----21-----21--20-----20-----20---|
G13-15-----15-13--15---17-15--17-15--17--20-17--20-17--17--19-17--19-17--19-|
D---------------------------------------------------------------------------|
A---------------------------------------------------------------------------|
D---------------------------------------------------------------------------|

E-------------------------------------------------------------------------|
B-----13-16-----16---18-----18-----18--21-----21-----21--20-----20(21)20--|
G13-15-----15-13--15---17-15--17-15--17--20-17--20-17--17--19-17----------|
d-------------------------------------------------------------------------|
A-------------------------------------------------------------------------|
D-------------------------------------------------------------------------|


Guitar 2
E-------------------------------------------------------------------------|
B5------------------------------------------------------------------------|
G5------------------------------------------------------------------------|
D3-------------------8----------------6------------------3----------------|
A--------------------8----------------6------------------3----------------|
D--------------------8----------------6------------------3----------------|

ĂŽnscrie-te la newsletter


Join the ranks ! LIKE us on Facebook