One More Time Tab - Disciple




Intro clean w/delay   Take note that it its in Drop D
E-----------------------------------------------------------------|
B-----------------------------------------------------------------|
G---------10-10-9~--------10-10-9~--------10-9~~--9-9-9-9-9-10-10-|
D-----------------------------------8h10----------8-8-8-8-8-8--10-|
A-------------------------------------------------8-8-8-8-8-8-----|
D--0-0---------------0-0--------------------------8-8-8-8-8-8-----|
repeat a few times til you get to the bridge part that
goes something like this  /play this part 3 times
E-------------------------/--------------------------------------|
B-------------------------/--------------------------------------|
G----10-------10------10--/-----10-------------------------------|
D-------------------------/--------------------------------------|
A-------------------------/--------------------------------------|
D8-8----10-10----12-12----/8-8-----------------------------------|
chorus
E---------------------------------------------------------------|
B---------------------------------------------------------------|
G---------------------------------------------------------------|
D-------------------------2-2-3---------------------------------|
A-----7-7-8-----7-7-8-----------------7-7-8---------------------|
D-0-0-------8-8-------3-3-------8-8-----------------------------|
on the other choruses, just play the bass notes as power chords.

ĂŽnscrie-te la newsletter


Join the ranks ! LIKE us on Facebook