Remedy Tab - Disciple




Song: Remedy
Band: Disciple
Album: Horseshoes and Handgrenades (2010)
Tabbed by: JRedDisciple
Drop C (C,G,C,F,A,D)


(Acoustic/ Clean) Intro / Verse
D -----------------------------------------------------------------|
A -----------------------------------------------------------------|
F -----------------------------------------------------------------|
C ----7----5-7-------10------10------10-----10--------3-5-3--------|   4x
G -5----5------5---8----8-10----8-------8-10---10---5-------5------|
C --------------------------------10--------------5----------------|

(3rd time of intro starts into verse... I see the world in black and grey....)


(Distortion) Pre-Chorus
D ---------------------------|
A ---------------------------|
F ---------------------------|
C ------8------5------5------|
G ------8------5------5------|
C ------8------5------5------|
(If a vision dies, will it ever breathe again?)

Chorus
D ------------------------------|
A ------------------------------|
F ------------------------------|
C ----0-------8------3-----7----|2x
G ----0-------8------3-----7----|
C ----0-------8------3-----7----|
(Oh, I gotta let go of this illusion...)

D --------------------------|
A --------------------------|
F --------------------------|
C ------8------5------------|
G ------8------5------------|
C ------8------5------------|
(Where you stop is where you start again...)

Verse 2 is the same as verse 1

Pre-chorus
D ---------------------------------------------------|
A ---------------------------------------------------|
F ---------------------------------------------------|
C -----------------------------------x-x-x-x-x-x-----|
G -----------------------------------x-x-x-x-x-x-----|
C---88888888888888885555555555555----x-x-x-x-x-x-----|
pm ******************************

Chorus
D ------------------------------|
A ------------------------------|
F ------------------------------|
C ----0-------8------3-----7----|2x
G ----0-------8------3-----7----|
C ----0-------8------3-----7----|
(Oh, I gotta let go of this illusion...)

D --------------------------|
A --------------------------|
F --------------------------|
C ------8------5------------|           2x
G ------8------5------------|
C ------8------5------------|
(Where you stop is where you start again...)


D ----------------------------------------------|
A ----------------------------------------------|
F ----------------------------------------1-----|
C -12-0-0-00-3-0-0-00---12-0-0-00--3-0-0--3-----|      2x
G -12-0-0-00-3-0-0-00---12-0-0-00--3-0-0--3-----|
C -12-0-0-00-3-0-0-00---12-0-0-00--3-0-0--------|

Acoustic Half Chorus

Chorus again
Stop halfway through, strings bring it back in...

Finish with

D --------------------------|-----------------|
A --------------------------|-----------------|
F --------------------------|-----------------|
C ------8------5------------|-----------0-----|    FINISH
G ------8------5------------|-----------0-----|
C ------8------5------------|-THEN--0---------|

The tab is 100% correct no errors, the rhythm in the intro is the only tricky bit in the 
and even that is super easy...
Enjoy! Rock Hard and God Bless!!

ĂŽnscrie-te la newsletter


Join the ranks ! LIKE us on Facebook