Remembering Tab - Disciple




Drop-D tuning down to A!  Or dust off the baritone!!!

Intro
B |---------------------------------|----------------------------------|
F#|---------------------------------|----------------------------------|
D |---------------------------------|----------------------------------|
A |-----8---7-7----------8---7-7----|-----8---7-7----------8---7-7-----|
E |-----6---5-5----------6---5-5----|-----6---5-5----------6---5-5-----|
A |-0-0---0----------0-0---0--------|-0-0---0----------0-0---0---------|

B |---------------------------------|----------------------------------|
F#|---------------------------------|----------------------------------|
D |---------------------------------|----------------------------------|
A |-----8---7-7----------8---7-7----|-----8---7-7----------8-----------|
E |-----6---5-5----------6---5-5----|-----6---5-5----------6-----------|
A |-0-0---0----------0-0---0--------|-0-0---0----------0-0---0---16---|

Verse                                                               2x
B ||--------------------------------|---------------------------------||
F#||*-------------------------------|--------------------------------*||
D ||--------------------------------|---------------------------------||
A ||---0-0-3-0-0-0-----0-0-3-0-0-0--|---0-0-3-0-0-0-----0-0-3-0-------||
E ||*--0-0-3-0-0-0-----0-0-3-0-0-0--|---0-0-3-0-0-0-----0-0-3-0-6-5--*||
A ||---0-0-3-0-0-0-----0-0-3-0-0-0--|---0-0-3-0-0-0-----0-0-3-0-------||

                                                                    2x
B ||--------------------------------|---------------------------------||
F#||*-------------------------------|--------------------------------*||
D ||--------------------------------|---------------------------------||
A ||-------8---7-7---------8---7-7--|-------8---7-7---------8---7-7---||
E ||*------6---5-5---------6---5-5--|-------6---5-5---------6---5-5--*||
A ||---0-0---0---------0-0---0------|---0-0---0---------0-0---0-------||

Pre-Chorus
B |----------------------------------|----------------------------------|
F#|----------------------------------|----------------------------------|
D |----------------------------------|----------------------------------|
A |-----------------12-------12------|-------------------15---------14--|
E |--------10------------------------|---------12-----------------------|
A |----8--------8--------8-----------|----10--------10--------10--------|

   With wah
B |----------------------------------|----------------------------------|
F#|----------------------------------|----------------------------------|
D |----------------------------------|----------------------------------|
A |----------------------------------|----------------------------------|
E |----3h5-5---3h5-5---3h5-----------|----3h5-5---3h5-5---3h5-----------|
A |----------0-------0---------------|----------0-------0---------------|

   Wah off
B |----------------------------------|----------------------------------|
F#|----------------------------------|----------------------------------|
D |----------------------------------|----------------------------------|
A |----7-7-7---7-7-7---7-7-----------|----7-7-7---7-7-7---7-7-----------|
E |----3h5-5---3h5-5---3h5-----------|----3h5-5---3h5-5---3h5-----------|
A |----------0-------0---------------|----------0-------0---------------|

Chorus                                                               3x
B ||---------------------------------|---------------------------------||
F#||*--------------------------------|--------------------------------*||
D ||---------------------------------|---------------------------------||
A ||--7---7---7---8---8---8---7------|--10--10--10--10--10--10--10-----||
E ||*-5---5---5---5---5---5---5------|--7---7---7---8---8---8---7-----*||
A ||------------------------------0--|------------------------------0--||

                                                         (1st time only)
B |----------------------------------|----------------------------------|
F#|----------------------------------|----------------------------------|
D |---------------------------3--3---|----------------------------------|
A |---10--10---x-x----10-----3--3---|----------------------------------|
E |---7---7----x-x----8------1--1---|-------------------------12------|
A |----------------------------------|-------------------------12------|

Repeat from Intro

Bridge
B |----------------------------------|----------------------------------|
F#|----------------------------------|----------------------------------|
D |----------------------------------|----------------------------------|
A |----------------------------------|----------------------------------|
E |------------5---------------------|------------5---------------------|
A |----0---0-------0-----3-b-5-r-3---|----0---0-------0-----3-b-5-r-3---|

B |----------------------------------|----------------------------------|
F#|----------------------------------|----------------------------------|
D |----------------------------------|----------------------------------|
A |----------------------------------|----------------------------------|
E |------------5---------------------|------------5---------------------|
A |----0---0-------0-----3-b-5-r-3---|----0---0-------0-----------------|

                                                                     4x
B ||---------------------------------|---------------------------------||
F#||*--------------------------------|--------------------------------*||
D ||---------------------------------|---------------------------------||
A ||---------------------------------|---------------------------------||
E ||*----------5---------------------|------------5-------------------*||
A ||---0---0-------0-----3-b-5-r-3---|----0---0-------0-----3-b-5-r-3--||

Repeat from Pre-Chorus

Last time through Chorus ends with:                                  2x
B ||---------------------------------|---------------------------------||
F#||*--------------------------------|--------------------------------*||
D ||---------------------------------|---------------------------------||
A ||--7-----7-----7-----7------------|--7-----7-----7-----7------------||
E ||*-3-h-5-5-----3-h-5-5------------|--3-h-5-5-----3-h-5-5-----------*||
A ||-----------------------0-0-0-0---|-----------------------0-0-0-0---||

B |----------------------------------|---------------------------------||
F#|----------------------------------|---------------------------------||
D |----------------------------------|--3-----3------------------------||
A |---10---x-x-x-x----10---x-x-x-x---|--3-----3------------------------||
E |---7----x-x-x-x----8----x-x-x-x---|--1-----1------------------------||
A |----------------------------------|---------------------------------||

ĂŽnscrie-te la newsletter


Join the ranks ! LIKE us on Facebook