Things Left Unsaid Tab - Disciple




Disciple
Things Left Unsaid
Rise Up (dual disc)

intro/verses/outro

d----------15---------------------------------------------|
a--18--15------17-----------------------------------------|
f---------------------------------------------------------|
c---------------------------------------------------------|
g---------------------------------------------------------|
C---------------------------------------------------------|

chorus

d---------------------------------------------------------|
a---------------------------------------------------------|
f---7----5----3-------------------------------------------|
c---7----5----3----5----7---------------------------------|
g---5----3----1----5----7---------------------------------|
C------------------5----7---------------------------------|

bridge

d---------------------------------------------------------|
a---------------------------------------------------------|
f---------------------------------------------------------|
c---8----5----3----7----8----5----3----7----8----7--------|
g---8----5----3----7----8----5----3----7----8----7--------|
C---8----5----3----7----8----5----3----7----8----7--------|


Listen to song for strumming and arrangements.  Theyre all pretty basic
and easy to figure out.  have fun

Patrick

ĂŽnscrie-te la newsletter


Join the ranks ! LIKE us on Facebook